  0
SECTION
  2
HEADER
  9
$ACADVER
  1
AC1015
  9
$ACADMAINTVER
 70
     6
  9
$DWGCODEPAGE
  3
ANSI_1254
  9
$INSBASE
 10
0.0
 20
0.0
 30
0.0
  9
$EXTMIN
 10
0.0
 20
0.0
 30
0.0
  9
$EXTMAX
 10
279.4
 20
215.9
 30
0.0
  9
$LIMMIN
 10
0.0
 20
0.0
  9
$LIMMAX
 10
279.4
 20
215.9
  9
$ORTHOMODE
 70
     0
  9
$REGENMODE
 70
     1
  9
$FILLMODE
 70
     1
  9
$QTEXTMODE
 70
     0
  9
$MIRRTEXT
 70
     1
  9
$LTSCALE
 40
1.0
  9
$ATTMODE
 70
     1
  9
$TEXTSIZE
 40
3.5
  9
$TRACEWID
 40
1.0
  9
$TEXTSTYLE
  7
Standard
  9
$CLAYER
  8
0
  9
$CELTYPE
  6
ByLayer
  9
$CECOLOR
 62
   256
  9
$CELTSCALE
 40
1.0
  9
$DISPSILH
 70
     0
  9
$DIMSCALE
 40
1.0
  9
$DIMASZ
 40
3.5
  9
$DIMEXO
 40
1.0
  9
$DIMDLI
 40
3.75
  9
$DIMRND
 40
0.0
  9
$DIMDLE
 40
0.0
  9
$DIMEXE
 40
1.0
  9
$DIMTP
 40
0.0
  9
$DIMTM
 40
0.0
  9
$DIMTXT
 40
3.5
  9
$DIMCEN
 40
2.5
  9
$DIMTSZ
 40
0.0
  9
$DIMTOL
 70
     0
  9
$DIMLIM
 70
     0
  9
$DIMTIH
 70
     1
  9
$DIMTOH
 70
     1
  9
$DIMSE1
 70
     0
  9
$DIMSE2
 70
     0
  9
$DIMTAD
 70
     1
  9
$DIMZIN
 70
     0
  9
$DIMBLK
  1

  9
$DIMASO
 70
     1
  9
$DIMSHO
 70
     1
  9
$DIMPOST
  1

  9
$DIMAPOST
  1

  9
$DIMALT
 70
     0
  9
$DIMALTD
 70
     3
  9
$DIMALTF
 40
0.0393700787
  9
$DIMLFAC
 40
1.0
  9
$DIMTOFL
 70
     1
  9
$DIMTVP
 40
0.0
  9
$DIMTIX
 70
     0
  9
$DIMSOXD
 70
     0
  9
$DIMSAH
 70
     0
  9
$DIMBLK1
  1

  9
$DIMBLK2
  1

  9
$DIMSTYLE
  2
ISO-25
  9
$DIMCLRD
 70
     0
  9
$DIMCLRE
 70
     0
  9
$DIMCLRT
 70
     0
  9
$DIMTFAC
 40
1.0
  9
$DIMGAP
 40
1.524
  9
$DIMJUST
 70
     0
  9
$DIMSD1
 70
     0
  9
$DIMSD2
 70
     0
  9
$DIMTOLJ
 70
     0
  9
$DIMTZIN
 70
     0
  9
$DIMALTZ
 70
     0
  9
$DIMALTTZ
 70
     0
  9
$DIMUPT
 70
     0
  9
$DIMDEC
 70
     2
  9
$DIMTDEC
 70
     2
  9
$DIMALTU
 70
     2
  9
$DIMALTTD
 70
     3
  9
$DIMTXSTY
  7
Standard
  9
$DIMAUNIT
 70
     0
  9
$DIMADEC
 70
     2
  9
$DIMALTRND
 40
0.0
  9
$DIMAZIN
 70
     0
  9
$DIMDSEP
 70
    44
  9
$DIMATFIT
 70
     3
  9
$DIMFRAC
 70
     0
  9
$DIMLDRBLK
  1

  9
$DIMLUNIT
 70
     2
  9
$DIMLWD
 70
    -2
  9
$DIMLWE
 70
    -2
  9
$DIMTMOVE
 70
     0
  9
$LUNITS
 70
     2
  9
$LUPREC
 70
     2
  9
$SKETCHINC
 40
1.0
  9
$FILLETRAD
 40
10.0
  9
$AUNITS
 70
     0
  9
$AUPREC
 70
     2
  9
$MENU
  1
.
  9
$ELEVATION
 40
0.0
  9
$PELEVATION
 40
0.0
  9
$THICKNESS
 40
0.0
  9
$LIMCHECK
 70
     0
  9
$CHAMFERA
 40
0.0
  9
$CHAMFERB
 40
0.0
  9
$CHAMFERC
 40
0.0
  9
$CHAMFERD
 40
0.0
  9
$SKPOLY
 70
     0
  9
$TDCREATE
 40
2459741.588684907
  9
$TDUCREATE
 40
2459741.463684907
  9
$TDUPDATE
 40
2459741.588686678
  9
$TDUUPDATE
 40
2459741.463686678
  9
$TDINDWG
 40
0.0000000116
  9
$TDUSRTIMER
 40
0.0000000116
  9
$USRTIMER
 70
     1
  9
$ANGBASE
 50
0.0
  9
$ANGDIR
 70
     0
  9
$PDMODE
 70
     0
  9
$PDSIZE
 40
-1.0
  9
$PLINEWID
 40
0.0
  9
$SPLFRAME
 70
     0
  9
$SPLINETYPE
 70
     6
  9
$SPLINESEGS
 70
     8
  9
$HANDSEED
  5
16E
  9
$SURFTAB1
 70
     6
  9
$SURFTAB2
 70
     6
  9
$SURFTYPE
 70
     6
  9
$SURFU
 70
     6
  9
$SURFV
 70
     6
  9
$UCSBASE
  2

  9
$UCSNAME
  2

  9
$UCSORG
 10
0.0
 20
0.0
 30
0.0
  9
$UCSXDIR
 10
1.0
 20
0.0
 30
0.0
  9
$UCSYDIR
 10
0.0
 20
1.0
 30
0.0
  9
$UCSORTHOREF
  2

  9
$UCSORTHOVIEW
 70
     0
  9
$UCSORGTOP
 10
0.0
 20
0.0
 30
0.0
  9
$UCSORGBOTTOM
 10
0.0
 20
0.0
 30
0.0
  9
$UCSORGLEFT
 10
0.0
 20
0.0
 30
0.0
  9
$UCSORGRIGHT
 10
0.0
 20
0.0
 30
0.0
  9
$UCSORGFRONT
 10
0.0
 20
0.0
 30
0.0
  9
$UCSORGBACK
 10
0.0
 20
0.0
 30
0.0
  9
$PUCSBASE
  2

  9
$PUCSNAME
  2

  9
$PUCSORG
 10
0.0
 20
0.0
 30
0.0
  9
$PUCSXDIR
 10
1.0
 20
0.0
 30
0.0
  9
$PUCSYDIR
 10
0.0
 20
1.0
 30
0.0
  9
$PUCSORTHOREF
  2

  9
$PUCSORTHOVIEW
 70
     0
  9
$PUCSORGTOP
 10
0.0
 20
0.0
 30
0.0
  9
$PUCSORGBOTTOM
 10
0.0
 20
0.0
 30
0.0
  9
$PUCSORGLEFT
 10
0.0
 20
0.0
 30
0.0
  9
$PUCSORGRIGHT
 10
0.0
 20
0.0
 30
0.0
  9
$PUCSORGFRONT
 10
0.0
 20
0.0
 30
0.0
  9
$PUCSORGBACK
 10
0.0
 20
0.0
 30
0.0
  9
$USERI1
 70
     0
  9
$USERI2
 70
     0
  9
$USERI3
 70
     0
  9
$USERI4
 70
     0
  9
$USERI5
 70
     0
  9
$USERR1
 40
0.0
  9
$USERR2
 40
0.0
  9
$USERR3
 40
0.0
  9
$USERR4
 40
0.0
  9
$USERR5
 40
0.0
  9
$WORLDVIEW
 70
     1
  9
$SHADEDGE
 70
     3
  9
$SHADEDIF
 70
    70
  9
$TILEMODE
 70
     1
  9
$MAXACTVP
 70
    64
  9
$PINSBASE
 10
0.0
 20
0.0
 30
0.0
  9
$PLIMCHECK
 70
     0
  9
$PEXTMIN
 10
1.0000000000E+20
 20
1.0000000000E+20
 30
1.0000000000E+20
  9
$PEXTMAX
 10
-1.0000000000E+20
 20
-1.0000000000E+20
 30
-1.0000000000E+20
  9
$PLIMMIN
 10
0.0
 20
0.0
  9
$PLIMMAX
 10
420.0
 20
297.0
  9
$UNITMODE
 70
     0
  9
$VISRETAIN
 70
     1
  9
$PLINEGEN
 70
     0
  9
$PSLTSCALE
 70
     1
  9
$TREEDEPTH
 70
  3020
  9
$CMLSTYLE
  2
Standard
  9
$CMLJUST
 70
     0
  9
$CMLSCALE
 40
20.0
  9
$PROXYGRAPHICS
 70
     1
  9
$MEASUREMENT
 70
     1
  9
$CELWEIGHT
370
    -1
  9
$ENDCAPS
280
     0
  9
$JOINSTYLE
280
     0
  9
$LWDISPLAY
290
     1
  9
$INSUNITS
 70
     4
  9
$HYPERLINKBASE
  1

  9
$STYLESHEET
  1

  9
$XEDIT
290
     1
  9
$CEPSNTYPE
380
     0
  9
$PSTYLEMODE
290
     1
  9
$FINGERPRINTGUID
  2
{b085beeb-e09b-4c85-80ce-c3ec8eb9550f}
  9
$VERSIONGUID
  2
{FAEB1C32-E019-11D5-929B-00C0DF256EC4}
  9
$EXTNAMES
290
     1
  9
$PSVPSCALE
 40
0.0
  9
$OLESTARTUP
290
     0
  0
ENDSEC
  0
SECTION
  2
CLASSES
  0
CLASS
  1
ACDBDICTIONARYWDFLT
  2
AcDbDictionaryWithDefault
  3
ObjectDBX Classes
 90
        0
280
     0
281
     0
  0
CLASS
  1
VISUALSTYLE
  2
AcDbVisualStyle
  3
ObjectDBX Classes
 90
     4095
280
     0
281
     0
  0
CLASS
  1
MATERIAL
  2
AcDbMaterial
  3
ObjectDBX Classes
 90
     1153
280
     0
281
     0
  0
CLASS
  1
SCALE
  2
AcDbScale
  3
ObjectDBX Classes
 90
     1153
280
     0
281
     0
  0
CLASS
  1
TABLESTYLE
  2
AcDbTableStyle
  3
ObjectDBX Classes
 90
     4095
280
     0
281
     0
  0
CLASS
  1
MLEADERSTYLE
  2
AcDbMLeaderStyle
  3
ACDB_MLEADERSTYLE_CLASS
 90
     4095
280
     0
281
     0
  0
CLASS
  1
SUN
  2
AcDbSun
  3
SCENEOE
 90
     1153
280
     0
281
     0
  0
CLASS
  1
ACDBPLACEHOLDER
  2
AcDbPlaceHolder
  3
ObjectDBX Classes
 90
        0
280
     0
281
     0
  0
CLASS
  1
LAYOUT
  2
AcDbLayout
  3
ObjectDBX Classes
 90
        0
280
     0
281
     0
  0
ENDSEC
  0
SECTION
  2
TABLES
  0
TABLE
  2
VPORT
  5
8
330
0
100
AcDbSymbolTable
 70
     1
  0
VPORT
  5
29
330
8
100
AcDbSymbolTableRecord
100
AcDbViewportTableRecord
  2
*Active
 70
     0
 10
0.0
 20
0.0
 11
1.0
 21
1.0
 12
139.7
 22
107.95
 13
0.0
 23
0.0
 14
10.0
 24
10.0
 15
10.0
 25
10.0
 16
0.0
 26
0.0
 36
1.0
 17
0.0
 27
0.0
 37
0.0
 40
215.9
 41
1.2941176471
 42
50.0
 43
0.0
 44
0.0
 50
0.0
 51
0.0
 71
     0
 72
  2000
 73
     1
 74
     3
 75
     0
 76
     0
 77
     0
 78
     0
281
     0
 65
     1
110
0.0
120
0.0
130
0.0
111
1.0
121
0.0
131
0.0
112
0.0
122
1.0
132
0.0
 79
     0
146
0.0
  0
ENDTAB
  0
TABLE
  2
LTYPE
  5
5
330
0
100
AcDbSymbolTable
 70
     6
  0
LTYPE
  5
14
330
5
100
AcDbSymbolTableRecord
100
AcDbLinetypeTableRecord
  2
ByBlock
 70
     0
  3

 72
    65
 73
     0
 40
0.0
  0
LTYPE
  5
15
330
5
100
AcDbSymbolTableRecord
100
AcDbLinetypeTableRecord
  2
ByLayer
 70
     0
  3

 72
    65
 73
     0
 40
0.0
  0
LTYPE
  5
16
330
5
100
AcDbSymbolTableRecord
100
AcDbLinetypeTableRecord
  2
Continuous
 70
     0
  3
Solid line
 72
    65
 73
     0
 40
0.0
  0
LTYPE
  5
6E
330
5
100
AcDbSymbolTableRecord
100
AcDbLinetypeTableRecord
  2
HIDDEN
 70
     0
  3
Hidden __ __ __ __ __ __ __ __ __ __ __ __ __ __
 72
    65
 73
     2
 40
1.905
 49
1.27
 74
     0
 49
-0.635
 74
     0
  0
LTYPE
  5
6F
330
5
100
AcDbSymbolTableRecord
100
AcDbLinetypeTableRecord
  2
PHANTOM
 70
     0
  3
Phantom ______  __  __  ______  __  __  ______
 72
    65
 73
     6
 40
12.7
 49
6.35
 74
     0
 49
-1.27
 74
     0
 49
1.27
 74
     0
 49
-1.27
 74
     0
 49
1.27
 74
     0
 49
-1.27
 74
     0
  0
LTYPE
  5
70
330
5
100
AcDbSymbolTableRecord
100
AcDbLinetypeTableRecord
  2
CENTER
 70
     0
  3
Center ____ _ ____ _ ____ _ ____ _ ____ _ ____
 72
    65
 73
     4
 40
10.16
 49
6.35
 74
     0
 49
-1.27
 74
     0
 49
1.27
 74
     0
 49
-1.27
 74
     0
  0
LTYPE
  5
71
330
5
100
AcDbSymbolTableRecord
100
AcDbLinetypeTableRecord
  2
CENTERX2
 70
     0
  3
Center (2x) ________  __  ________  __  _____
 72
    65
 73
     4
 40
20.32
 49
12.7
 74
     0
 49
-2.54
 74
     0
 49
2.54
 74
     0
 49
-2.54
 74
     0
  0
LTYPE
  5
72
330
5
100
AcDbSymbolTableRecord
100
AcDbLinetypeTableRecord
  2
DOT2
 70
     0
  3
Dot (.5x) ........................................
 72
    65
 73
     2
 40
0.635
 49
0.0
 74
     0
 49
-0.635
 74
     0
  0
ENDTAB
  0
TABLE
  2
LAYER
  5
2
330
0
100
AcDbSymbolTable
 70
    17
  0
LAYER
  5
10
330
2
100
AcDbSymbolTableRecord
100
AcDbLayerTableRecord
  2
0
 70
     0
 62
     7
  6
Continuous
370
    -3
390
F
  0
LAYER
  5
73
330
2
100
AcDbSymbolTableRecord
100
AcDbLayerTableRecord
  2
FORMAT
 70
     0
 62
     7
  6
Continuous
370
    -3
390
F
  0
LAYER
  5
74
330
2
100
AcDbSymbolTableRecord
100
AcDbLayerTableRecord
  2
YARDIMCI_GEOMETRI
 70
     0
 62
    -6
  6
Continuous
290
     0
370
    -3
390
F
  0
LAYER
  5
75
330
2
100
AcDbSymbolTableRecord
100
AcDbLayerTableRecord
  2
SAYFA_CERCEVESI
 70
     0
 62
     7
  6
Continuous
370
    25
390
F
  0
LAYER
  5
76
330
2
100
AcDbSymbolTableRecord
100
AcDbLayerTableRecord
  2
ANTET
 70
     0
 62
     7
  6
Continuous
370
    -3
390
F
  0
LAYER
  5
77
330
2
100
AcDbSymbolTableRecord
100
AcDbLayerTableRecord
  2
OLCU
 70
     0
 62
   150
  6
Continuous
370
    -3
390
F
  0
LAYER
  5
78
330
2
100
AcDbSymbolTableRecord
100
AcDbLayerTableRecord
  2
METIN
 70
     0
 62
    96
  6
Continuous
370
    -3
390
F
  0
LAYER
  5
79
330
2
100
AcDbSymbolTableRecord
100
AcDbLayerTableRecord
  2
BALON
 70
     0
 62
     5
  6
Continuous
370
    -3
390
F
  0
LAYER
  5
7A
330
2
100
AcDbSymbolTableRecord
100
AcDbLayerTableRecord
  2
VURGU
 70
     0
 62
     7
  6
Continuous
370
    -3
390
F
  0
LAYER
  5
7B
330
2
100
AcDbSymbolTableRecord
100
AcDbLayerTableRecord
  2
SILIK
 70
     0
 62
     7
  6
Continuous
370
    -3
390
F
  0
LAYER
  5
7C
330
2
100
AcDbSymbolTableRecord
100
AcDbLayerTableRecord
  2
MODEL
 70
     0
 62
     7
  6
Continuous
370
    -3
390
F
  0
LAYER
  5
7D
330
2
100
AcDbSymbolTableRecord
100
AcDbLayerTableRecord
  2
DETAYLANDıRMA
 70
     0
 62
   190
  6
Continuous
370
    -3
390
F
  0
LAYER
  5
7E
330
2
100
AcDbSymbolTableRecord
100
AcDbLayerTableRecord
  2
TOLERANS
 70
     0
 62
   230
  6
Continuous
370
    -3
390
F
  0
LAYER
  5
7F
330
2
100
AcDbSymbolTableRecord
100
AcDbLayerTableRecord
  2
MERKEZ_CIZGILERI
 70
     0
 62
    30
  6
Continuous
370
    -3
390
F
  0
LAYER
  5
80
330
2
100
AcDbSymbolTableRecord
100
AcDbLayerTableRecord
  2
KESIT-DETAY_CIZGILERI
 70
     0
 62
     7
  6
Continuous
370
    -3
390
F
  0
LAYER
  5
81
330
2
100
AcDbSymbolTableRecord
100
AcDbLayerTableRecord
  2
\U+041E\U+0421\U+0415\U+0412\U+042B\U+0415
 70
     0
 62
     7
  6
Continuous
370
    -3
390
F
  0
LAYER
  5
82
330
2
100
AcDbSymbolTableRecord
100
AcDbLayerTableRecord
  2
\U+0412\U+041E\U+0414\U+042F\U+041D\U+042B\U+0415_\U+0417\U+041D\U+0410\U+041A\U+0418
 70
     0
 62
    11
  6
Continuous
370
    -3
390
F
  0
ENDTAB
  0
TABLE
  2
STYLE
  5
3
330
0
100
AcDbSymbolTable
 70
     1
  0
STYLE
  5
11
330
3
100
AcDbSymbolTableRecord
100
AcDbTextStyleTableRecord
  2
Standard
 70
     0
 40
0.0
 41
1.0
 50
0.0
 71
     0
 42
3.5
  3
txt
  4

  0
ENDTAB
  0
TABLE
  2
VIEW
  5
6
330
0
100
AcDbSymbolTable
 70
     0
  0
ENDTAB
  0
TABLE
  2
UCS
  5
7
330
0
100
AcDbSymbolTable
 70
     0
  0
ENDTAB
  0
TABLE
  2
APPID
  5
9
330
0
100
AcDbSymbolTable
 70
     1
  0
APPID
  5
12
330
9
100
AcDbSymbolTableRecord
100
AcDbRegAppTableRecord
  2
ACAD
 70
     0
  0
ENDTAB
  0
TABLE
  2
DIMSTYLE
  5
A
330
0
100
AcDbSymbolTable
 70
     1
100
AcDbDimStyleTable
  0
DIMSTYLE
105
27
330
A
100
AcDbSymbolTableRecord
100
AcDbDimStyleTableRecord
  2
ISO-25
 70
     0
 41
2.5
 42
0.625
 43
3.75
 44
1.25
 73
     0
 74
     0
 77
     1
 78
     8
140
2.5
141
2.5
143
0.0393700787
147
0.625
171
     3
172
     1
178
     0
271
     2
272
     2
274
     3
278
    44
283
     0
284
     8
340
11
  0
ENDTAB
  0
TABLE
  2
BLOCK_RECORD
  5
1
330
0
100
AcDbSymbolTable
 70
    10
  0
BLOCK_RECORD
  5
1F
330
1
100
AcDbSymbolTableRecord
100
AcDbBlockTableRecord
  2
*Model_Space
340
22
  0
BLOCK_RECORD
  5
1B
330
1
100
AcDbSymbolTableRecord
100
AcDbBlockTableRecord
  2
*Paper_Space
340
1E
  0
BLOCK_RECORD
  5
23
330
1
100
AcDbSymbolTableRecord
100
AcDbBlockTableRecord
  2
*Paper_Space0
340
26
  0
BLOCK_RECORD
  5
97
330
1
100
AcDbSymbolTableRecord
100
AcDbBlockTableRecord
  2
SW_CENTERMARKSYMBOL_0
340
0
102
{BLKREFS
331
A2
102
}
  0
BLOCK_RECORD
  5
A3
330
1
100
AcDbSymbolTableRecord
100
AcDbBlockTableRecord
  2
SW_CENTERMARKSYMBOL_1
340
0
102
{BLKREFS
331
AE
102
}
  0
BLOCK_RECORD
  5
AF
330
1
100
AcDbSymbolTableRecord
100
AcDbBlockTableRecord
  2
SW_CENTERMARKSYMBOL_2
340
0
102
{BLKREFS
331
BA
102
}
  0
BLOCK_RECORD
  5
BB
330
1
100
AcDbSymbolTableRecord
100
AcDbBlockTableRecord
  2
SW_CENTERMARKSYMBOL_3
340
0
102
{BLKREFS
331
C6
102
}
  0
BLOCK_RECORD
  5
C7
330
1
100
AcDbSymbolTableRecord
100
AcDbBlockTableRecord
  2
SW_CENTERMARKSYMBOL_4
340
0
102
{BLKREFS
331
D2
102
}
  0
BLOCK_RECORD
  5
D3
330
1
100
AcDbSymbolTableRecord
100
AcDbBlockTableRecord
  2
SW_CENTERMARKSYMBOL_5
340
0
102
{BLKREFS
331
DE
102
}
  0
BLOCK_RECORD
  5
DF
330
1
100
AcDbSymbolTableRecord
100
AcDbBlockTableRecord
  2
SW_CENTERMARKSYMBOL_6
340
0
102
{BLKREFS
331
EA
102
}
  0
BLOCK_RECORD
  5
EB
330
1
100
AcDbSymbolTableRecord
100
AcDbBlockTableRecord
  2
SW_CENTERMARKSYMBOL_7
340
0
102
{BLKREFS
331
F6
102
}
  0
BLOCK_RECORD
  5
F7
330
1
100
AcDbSymbolTableRecord
100
AcDbBlockTableRecord
  2
SW_CENTERMARKSYMBOL_8
340
0
102
{BLKREFS
331
102
102
}
  0
ENDTAB
  0
ENDSEC
  0
SECTION
  2
BLOCKS
  0
BLOCK
  5
20
330
1F
100
AcDbEntity
  8
0
100
AcDbBlockBegin
  2
*Model_Space
 70
     0
 10
0.0
 20
0.0
 30
0.0
  3
*Model_Space
  1

  0
ENDBLK
  5
21
330
1F
100
AcDbEntity
  8
0
100
AcDbBlockEnd
  0
BLOCK
  5
1C
330
1B
100
AcDbEntity
 67
     1
  8
0
100
AcDbBlockBegin
  2
*Paper_Space
 70
     0
 10
0.0
 20
0.0
 30
0.0
  3
*Paper_Space
  1

  0
ENDBLK
  5
1D
330
1B
100
AcDbEntity
 67
     1
  8
0
100
AcDbBlockEnd
  0
BLOCK
  5
24
330
23
100
AcDbEntity
  8
0
100
AcDbBlockBegin
  2
*Paper_Space0
 70
     0
 10
0.0
 20
0.0
 30
0.0
  3
*Paper_Space0
  1

  0
ENDBLK
  5
25
330
23
100
AcDbEntity
  8
0
100
AcDbBlockEnd
  0
BLOCK
  5
98
330
97
100
AcDbEntity
  8
0
100
AcDbBlockBegin
  2
SW_CENTERMARKSYMBOL_0
 70
     0
 10
0.0
 20
0.0
 30
0.0
  3
SW_CENTERMARKSYMBOL_0
  1

  0
LINE
  5
9A
330
97
100
AcDbEntity
  8
FORMAT
 62
     0
100
AcDbLine
 10
0.0
 20
0.0
 30
0.0
 11
0.0
 21
2.5
 31
0.0
  0
LINE
  5
9B
330
97
100
AcDbEntity
  8
FORMAT
 62
     0
100
AcDbLine
 10
0.0
 20
0.0
 30
0.0
 11
-2.5
 21
0.0
 31
0.0
  0
LINE
  5
9C
330
97
100
AcDbEntity
  8
FORMAT
 62
     0
100
AcDbLine
 10
0.0
 20
0.0
 30
0.0
 11
0.0
 21
-2.5
 31
0.0
  0
LINE
  5
9D
330
97
100
AcDbEntity
  8
FORMAT
 62
     0
100
AcDbLine
 10
0.0
 20
0.0
 30
0.0
 11
2.5
 21
0.0
 31
0.0
  0
LINE
  5
9E
330
97
100
AcDbEntity
  8
FORMAT
 62
     0
100
AcDbLine
 10
0.0
 20
5.0
 30
0.0
 11
0.0
 21
117.0
 31
0.0
  0
LINE
  5
9F
330
97
100
AcDbEntity
  8
FORMAT
 62
     0
100
AcDbLine
 10
-5.0
 20
0.0
 30
0.0
 11
-117.0
 21
0.0
 31
0.0
  0
LINE
  5
A0
330
97
100
AcDbEntity
  8
FORMAT
 62
     0
100
AcDbLine
 10
0.0
 20
-5.0
 30
0.0
 11
0.0
 21
-117.0
 31
0.0
  0
LINE
  5
A1
330
97
100
AcDbEntity
  8
FORMAT
 62
     0
100
AcDbLine
 10
5.0
 20
0.0
 30
0.0
 11
117.0
 21
0.0
 31
0.0
  0
ENDBLK
  5
99
330
97
100
AcDbEntity
  8
0
100
AcDbBlockEnd
  0
BLOCK
  5
A4
330
A3
100
AcDbEntity
  8
0
100
AcDbBlockBegin
  2
SW_CENTERMARKSYMBOL_1
 70
     0
 10
0.0
 20
0.0
 30
0.0
  3
SW_CENTERMARKSYMBOL_1
  1

  0
LINE
  5
A6
330
A3
100
AcDbEntity
  8
FORMAT
 62
     0
100
AcDbLine
 10
0.0
 20
0.0
 30
0.0
 11
0.0
 21
2.5
 31
0.0
  0
LINE
  5
A7
330
A3
100
AcDbEntity
  8
FORMAT
 62
     0
100
AcDbLine
 10
0.0
 20
0.0
 30
0.0
 11
-2.5
 21
0.0
 31
0.0
  0
LINE
  5
A8
330
A3
100
AcDbEntity
  8
FORMAT
 62
     0
100
AcDbLine
 10
0.0
 20
0.0
 30
0.0
 11
0.0
 21
-2.5
 31
0.0
  0
LINE
  5
A9
330
A3
100
AcDbEntity
  8
FORMAT
 62
     0
100
AcDbLine
 10
0.0
 20
0.0
 30
0.0
 11
2.5
 21
0.0
 31
0.0
  0
LINE
  5
AA
330
A3
100
AcDbEntity
  8
FORMAT
 62
     0
100
AcDbLine
 10
0.0
 20
5.0
 30
0.0
 11
0.0
 21
12.5
 31
0.0
  0
LINE
  5
AB
330
A3
100
AcDbEntity
  8
FORMAT
 62
     0
100
AcDbLine
 10
-5.0
 20
0.0
 30
0.0
 11
-12.5
 21
0.0
 31
0.0
  0
LINE
  5
AC
330
A3
100
AcDbEntity
  8
FORMAT
 62
     0
100
AcDbLine
 10
0.0
 20
-5.0
 30
0.0
 11
0.0
 21
-12.5
 31
0.0
  0
LINE
  5
AD
330
A3
100
AcDbEntity
  8
FORMAT
 62
     0
100
AcDbLine
 10
5.0
 20
0.0
 30
0.0
 11
12.5
 21
0.0
 31
0.0
  0
ENDBLK
  5
A5
330
A3
100
AcDbEntity
  8
0
100
AcDbBlockEnd
  0
BLOCK
  5
B0
330
AF
100
AcDbEntity
  8
0
100
AcDbBlockBegin
  2
SW_CENTERMARKSYMBOL_2
 70
     0
 10
0.0
 20
0.0
 30
0.0
  3
SW_CENTERMARKSYMBOL_2
  1

  0
LINE
  5
B2
330
AF
100
AcDbEntity
  8
FORMAT
 62
     0
100
AcDbLine
 10
0.0
 20
0.0
 30
0.0
 11
0.0
 21
2.5
 31
0.0
  0
LINE
  5
B3
330
AF
100
AcDbEntity
  8
FORMAT
 62
     0
100
AcDbLine
 10
0.0
 20
0.0
 30
0.0
 11
-2.5
 21
0.0
 31
0.0
  0
LINE
  5
B4
330
AF
100
AcDbEntity
  8
FORMAT
 62
     0
100
AcDbLine
 10
0.0
 20
0.0
 30
0.0
 11
0.0
 21
-2.5
 31
0.0
  0
LINE
  5
B5
330
AF
100
AcDbEntity
  8
FORMAT
 62
     0
100
AcDbLine
 10
0.0
 20
0.0
 30
0.0
 11
2.5
 21
0.0
 31
0.0
  0
LINE
  5
B6
330
AF
100
AcDbEntity
  8
FORMAT
 62
     0
100
AcDbLine
 10
0.0
 20
5.0
 30
0.0
 11
0.0
 21
12.5
 31
0.0
  0
LINE
  5
B7
330
AF
100
AcDbEntity
  8
FORMAT
 62
     0
100
AcDbLine
 10
-5.0
 20
0.0
 30
0.0
 11
-12.5
 21
0.0
 31
0.0
  0
LINE
  5
B8
330
AF
100
AcDbEntity
  8
FORMAT
 62
     0
100
AcDbLine
 10
0.0
 20
-5.0
 30
0.0
 11
0.0
 21
-12.5
 31
0.0
  0
LINE
  5
B9
330
AF
100
AcDbEntity
  8
FORMAT
 62
     0
100
AcDbLine
 10
5.0
 20
0.0
 30
0.0
 11
12.5
 21
0.0
 31
0.0
  0
ENDBLK
  5
B1
330
AF
100
AcDbEntity
  8
0
100
AcDbBlockEnd
  0
BLOCK
  5
BC
330
BB
100
AcDbEntity
  8
0
100
AcDbBlockBegin
  2
SW_CENTERMARKSYMBOL_3
 70
     0
 10
0.0
 20
0.0
 30
0.0
  3
SW_CENTERMARKSYMBOL_3
  1

  0
LINE
  5
BE
330
BB
100
AcDbEntity
  8
FORMAT
 62
     0
100
AcDbLine
 10
0.0
 20
0.0
 30
0.0
 11
0.0
 21
2.5
 31
0.0
  0
LINE
  5
BF
330
BB
100
AcDbEntity
  8
FORMAT
 62
     0
100
AcDbLine
 10
0.0
 20
0.0
 30
0.0
 11
-2.5
 21
0.0
 31
0.0
  0
LINE
  5
C0
330
BB
100
AcDbEntity
  8
FORMAT
 62
     0
100
AcDbLine
 10
0.0
 20
0.0
 30
0.0
 11
0.0
 21
-2.5
 31
0.0
  0
LINE
  5
C1
330
BB
100
AcDbEntity
  8
FORMAT
 62
     0
100
AcDbLine
 10
0.0
 20
0.0
 30
0.0
 11
2.5
 21
0.0
 31
0.0
  0
LINE
  5
C2
330
BB
100
AcDbEntity
  8
FORMAT
 62
     0
100
AcDbLine
 10
0.0
 20
5.0
 30
0.0
 11
0.0
 21
12.5
 31
0.0
  0
LINE
  5
C3
330
BB
100
AcDbEntity
  8
FORMAT
 62
     0
100
AcDbLine
 10
-5.0
 20
0.0
 30
0.0
 11
-12.5
 21
0.0
 31
0.0
  0
LINE
  5
C4
330
BB
100
AcDbEntity
  8
FORMAT
 62
     0
100
AcDbLine
 10
0.0
 20
-5.0
 30
0.0
 11
0.0
 21
-12.5
 31
0.0
  0
LINE
  5
C5
330
BB
100
AcDbEntity
  8
FORMAT
 62
     0
100
AcDbLine
 10
5.0
 20
0.0
 30
0.0
 11
12.5
 21
0.0
 31
0.0
  0
ENDBLK
  5
BD
330
BB
100
AcDbEntity
  8
0
100
AcDbBlockEnd
  0
BLOCK
  5
C8
330
C7
100
AcDbEntity
  8
0
100
AcDbBlockBegin
  2
SW_CENTERMARKSYMBOL_4
 70
     0
 10
0.0
 20
0.0
 30
0.0
  3
SW_CENTERMARKSYMBOL_4
  1

  0
LINE
  5
CA
330
C7
100
AcDbEntity
  8
FORMAT
 62
     0
100
AcDbLine
 10
0.0
 20
0.0
 30
0.0
 11
0.0
 21
2.5
 31
0.0
  0
LINE
  5
CB
330
C7
100
AcDbEntity
  8
FORMAT
 62
     0
100
AcDbLine
 10
0.0
 20
0.0
 30
0.0
 11
-2.5
 21
0.0
 31
0.0
  0
LINE
  5
CC
330
C7
100
AcDbEntity
  8
FORMAT
 62
     0
100
AcDbLine
 10
0.0
 20
0.0
 30
0.0
 11
0.0
 21
-2.5
 31
0.0
  0
LINE
  5
CD
330
C7
100
AcDbEntity
  8
FORMAT
 62
     0
100
AcDbLine
 10
0.0
 20
0.0
 30
0.0
 11
2.5
 21
0.0
 31
0.0
  0
LINE
  5
CE
330
C7
100
AcDbEntity
  8
FORMAT
 62
     0
100
AcDbLine
 10
0.0
 20
5.0
 30
0.0
 11
0.0
 21
12.5
 31
0.0
  0
LINE
  5
CF
330
C7
100
AcDbEntity
  8
FORMAT
 62
     0
100
AcDbLine
 10
-5.0
 20
0.0
 30
0.0
 11
-12.5
 21
0.0
 31
0.0
  0
LINE
  5
D0
330
C7
100
AcDbEntity
  8
FORMAT
 62
     0
100
AcDbLine
 10
0.0
 20
-5.0
 30
0.0
 11
0.0
 21
-12.5
 31
0.0
  0
LINE
  5
D1
330
C7
100
AcDbEntity
  8
FORMAT
 62
     0
100
AcDbLine
 10
5.0
 20
0.0
 30
0.0
 11
12.5
 21
0.0
 31
0.0
  0
ENDBLK
  5
C9
330
C7
100
AcDbEntity
  8
0
100
AcDbBlockEnd
  0
BLOCK
  5
D4
330
D3
100
AcDbEntity
  8
0
100
AcDbBlockBegin
  2
SW_CENTERMARKSYMBOL_5
 70
     0
 10
0.0
 20
0.0
 30
0.0
  3
SW_CENTERMARKSYMBOL_5
  1

  0
LINE
  5
D6
330
D3
100
AcDbEntity
  8
FORMAT
 62
     0
100
AcDbLine
 10
0.0
 20
0.0
 30
0.0
 11
0.0
 21
2.5
 31
0.0
  0
LINE
  5
D7
330
D3
100
AcDbEntity
  8
FORMAT
 62
     0
100
AcDbLine
 10
0.0
 20
0.0
 30
0.0
 11
-2.5
 21
0.0
 31
0.0
  0
LINE
  5
D8
330
D3
100
AcDbEntity
  8
FORMAT
 62
     0
100
AcDbLine
 10
0.0
 20
0.0
 30
0.0
 11
0.0
 21
-2.5
 31
0.0
  0
LINE
  5
D9
330
D3
100
AcDbEntity
  8
FORMAT
 62
     0
100
AcDbLine
 10
0.0
 20
0.0
 30
0.0
 11
2.5
 21
0.0
 31
0.0
  0
LINE
  5
DA
330
D3
100
AcDbEntity
  8
FORMAT
 62
     0
100
AcDbLine
 10
0.0
 20
5.0
 30
0.0
 11
0.0
 21
13.5
 31
0.0
  0
LINE
  5
DB
330
D3
100
AcDbEntity
  8
FORMAT
 62
     0
100
AcDbLine
 10
-5.0
 20
0.0
 30
0.0
 11
-13.5
 21
0.0
 31
0.0
  0
LINE
  5
DC
330
D3
100
AcDbEntity
  8
FORMAT
 62
     0
100
AcDbLine
 10
0.0
 20
-5.0
 30
0.0
 11
0.0
 21
-13.5
 31
0.0
  0
LINE
  5
DD
330
D3
100
AcDbEntity
  8
FORMAT
 62
     0
100
AcDbLine
 10
5.0
 20
0.0
 30
0.0
 11
13.5
 21
0.0
 31
0.0
  0
ENDBLK
  5
D5
330
D3
100
AcDbEntity
  8
0
100
AcDbBlockEnd
  0
BLOCK
  5
E0
330
DF
100
AcDbEntity
  8
0
100
AcDbBlockBegin
  2
SW_CENTERMARKSYMBOL_6
 70
     0
 10
0.0
 20
0.0
 30
0.0
  3
SW_CENTERMARKSYMBOL_6
  1

  0
LINE
  5
E2
330
DF
100
AcDbEntity
  8
FORMAT
 62
     0
100
AcDbLine
 10
0.0
 20
0.0
 30
0.0
 11
0.0
 21
2.5
 31
0.0
  0
LINE
  5
E3
330
DF
100
AcDbEntity
  8
FORMAT
 62
     0
100
AcDbLine
 10
0.0
 20
0.0
 30
0.0
 11
-2.5
 21
0.0
 31
0.0
  0
LINE
  5
E4
330
DF
100
AcDbEntity
  8
FORMAT
 62
     0
100
AcDbLine
 10
0.0
 20
0.0
 30
0.0
 11
0.0
 21
-2.5
 31
0.0
  0
LINE
  5
E5
330
DF
100
AcDbEntity
  8
FORMAT
 62
     0
100
AcDbLine
 10
0.0
 20
0.0
 30
0.0
 11
2.5
 21
0.0
 31
0.0
  0
LINE
  5
E6
330
DF
100
AcDbEntity
  8
FORMAT
 62
     0
100
AcDbLine
 10
0.0
 20
5.0
 30
0.0
 11
0.0
 21
13.5
 31
0.0
  0
LINE
  5
E7
330
DF
100
AcDbEntity
  8
FORMAT
 62
     0
100
AcDbLine
 10
-5.0
 20
0.0
 30
0.0
 11
-13.5
 21
0.0
 31
0.0
  0
LINE
  5
E8
330
DF
100
AcDbEntity
  8
FORMAT
 62
     0
100
AcDbLine
 10
0.0
 20
-5.0
 30
0.0
 11
0.0
 21
-13.5
 31
0.0
  0
LINE
  5
E9
330
DF
100
AcDbEntity
  8
FORMAT
 62
     0
100
AcDbLine
 10
5.0
 20
0.0
 30
0.0
 11
13.5
 21
0.0
 31
0.0
  0
ENDBLK
  5
E1
330
DF
100
AcDbEntity
  8
0
100
AcDbBlockEnd
  0
BLOCK
  5
EC
330
EB
100
AcDbEntity
  8
0
100
AcDbBlockBegin
  2
SW_CENTERMARKSYMBOL_7
 70
     0
 10
0.0
 20
0.0
 30
0.0
  3
SW_CENTERMARKSYMBOL_7
  1

  0
LINE
  5
EE
330
EB
100
AcDbEntity
  8
FORMAT
 62
     0
100
AcDbLine
 10
0.0
 20
0.0
 30
0.0
 11
0.0
 21
2.5
 31
0.0
  0
LINE
  5
EF
330
EB
100
AcDbEntity
  8
FORMAT
 62
     0
100
AcDbLine
 10
0.0
 20
0.0
 30
0.0
 11
-2.5
 21
0.0
 31
0.0
  0
LINE
  5
F0
330
EB
100
AcDbEntity
  8
FORMAT
 62
     0
100
AcDbLine
 10
0.0
 20
0.0
 30
0.0
 11
0.0
 21
-2.5
 31
0.0
  0
LINE
  5
F1
330
EB
100
AcDbEntity
  8
FORMAT
 62
     0
100
AcDbLine
 10
0.0
 20
0.0
 30
0.0
 11
2.5
 21
0.0
 31
0.0
  0
LINE
  5
F2
330
EB
100
AcDbEntity
  8
FORMAT
 62
     0
100
AcDbLine
 10
0.0
 20
5.0
 30
0.0
 11
0.0
 21
13.5
 31
0.0
  0
LINE
  5
F3
330
EB
100
AcDbEntity
  8
FORMAT
 62
     0
100
AcDbLine
 10
-5.0
 20
0.0
 30
0.0
 11
-13.5
 21
0.0
 31
0.0
  0
LINE
  5
F4
330
EB
100
AcDbEntity
  8
FORMAT
 62
     0
100
AcDbLine
 10
0.0
 20
-5.0
 30
0.0
 11
0.0
 21
-13.5
 31
0.0
  0
LINE
  5
F5
330
EB
100
AcDbEntity
  8
FORMAT
 62
     0
100
AcDbLine
 10
5.0
 20
0.0
 30
0.0
 11
13.5
 21
0.0
 31
0.0
  0
ENDBLK
  5
ED
330
EB
100
AcDbEntity
  8
0
100
AcDbBlockEnd
  0
BLOCK
  5
F8
330
F7
100
AcDbEntity
  8
0
100
AcDbBlockBegin
  2
SW_CENTERMARKSYMBOL_8
 70
     0
 10
0.0
 20
0.0
 30
0.0
  3
SW_CENTERMARKSYMBOL_8
  1

  0
LINE
  5
FA
330
F7
100
AcDbEntity
  8
FORMAT
 62
     0
100
AcDbLine
 10
0.0
 20
0.0
 30
0.0
 11
0.0
 21
2.5
 31
0.0
  0
LINE
  5
FB
330
F7
100
AcDbEntity
  8
FORMAT
 62
     0
100
AcDbLine
 10
0.0
 20
0.0
 30
0.0
 11
-2.5
 21
0.0
 31
0.0
  0
LINE
  5
FC
330
F7
100
AcDbEntity
  8
FORMAT
 62
     0
100
AcDbLine
 10
0.0
 20
0.0
 30
0.0
 11
0.0
 21
-2.5
 31
0.0
  0
LINE
  5
FD
330
F7
100
AcDbEntity
  8
FORMAT
 62
     0
100
AcDbLine
 10
0.0
 20
0.0
 30
0.0
 11
2.5
 21
0.0
 31
0.0
  0
LINE
  5
FE
330
F7
100
AcDbEntity
  8
FORMAT
 62
     0
100
AcDbLine
 10
0.0
 20
5.0
 30
0.0
 11
0.0
 21
13.5
 31
0.0
  0
LINE
  5
FF
330
F7
100
AcDbEntity
  8
FORMAT
 62
     0
100
AcDbLine
 10
-5.0
 20
0.0
 30
0.0
 11
-13.5
 21
0.0
 31
0.0
  0
LINE
  5
100
330
F7
100
AcDbEntity
  8
FORMAT
 62
     0
100
AcDbLine
 10
0.0
 20
-5.0
 30
0.0
 11
0.0
 21
-13.5
 31
0.0
  0
LINE
  5
101
330
F7
100
AcDbEntity
  8
FORMAT
 62
     0
100
AcDbLine
 10
5.0
 20
0.0
 30
0.0
 11
13.5
 21
0.0
 31
0.0
  0
ENDBLK
  5
F9
330
F7
100
AcDbEntity
  8
0
100
AcDbBlockEnd
  0
ENDSEC
  0
SECTION
  2
ENTITIES
  0
CIRCLE
  5
83
330
1F
100
AcDbEntity
  8
0
  6
Continuous
 62
     7
370
    25
100
AcDbCircle
 10
41.594711334
 20
107.0204083051
 30
0.0
 40
11.0
  0
CIRCLE
  5
84
330
1F
100
AcDbEntity
  8
0
  6
Continuous
 62
     7
370
    25
100
AcDbCircle
 10
204.1966322421
 20
39.6684873971
 30
0.0
 40
10.99999999999997
  0
CIRCLE
  5
85
330
1F
100
AcDbEntity
  8
0
  6
Continuous
 62
     7
370
    25
100
AcDbCircle
 10
204.1966322421
 20
174.3723292131
 30
0.0
 40
11.0
  0
CIRCLE
  5
86
330
1F
100
AcDbEntity
  8
0
  6
Continuous
 62
     7
370
    25
100
AcDbCircle
 10
136.844711334
 20
202.2704083051
 30
0.0
 40
11.00000000000003
  0
CIRCLE
  5
87
330
1F
100
AcDbEntity
  8
0
  6
Continuous
 62
     7
370
    25
100
AcDbCircle
 10
136.844711334
 20
107.0204083051
 30
0.0
 40
113.5
  0
CIRCLE
  5
88
330
1F
100
AcDbEntity
  8
0
  6
Continuous
 62
     7
370
    25
100
AcDbCircle
 10
136.844711334
 20
107.0204083051
 30
0.0
 40
67.5
  0
CIRCLE
  5
89
330
1F
100
AcDbEntity
  8
0
  6
Continuous
 62
     7
370
    25
100
AcDbCircle
 10
136.844711334
 20
11.7704083051
 30
0.0
 40
11.0
  0
CIRCLE
  5
8A
330
1F
100
AcDbEntity
  8
0
  6
Continuous
 62
     7
370
    25
100
AcDbCircle
 10
232.094711334
 20
107.0204083051
 30
0.0
 40
11.00000000000003
  0
CIRCLE
  5
8B
330
1F
100
AcDbEntity
  8
0
  6
Continuous
 62
     7
370
    25
100
AcDbCircle
 10
69.492790426
 20
39.6684873971
 30
0.0
 40
11.0
  0
CIRCLE
  5
8C
330
1F
100
AcDbEntity
  8
0
  6
Continuous
 62
     7
370
    25
100
AcDbCircle
 10
69.492790426
 20
174.3723292131
 30
0.0
 40
10.99999999999999
  0
CIRCLE
  5
8D
330
1F
100
AcDbEntity
  8
0
  6
Continuous
 62
     7
370
    25
100
AcDbCircle
 10
136.844711334
 20
11.7704083051
 30
0.0
 40
9.999999999999972
  0
CIRCLE
  5
8E
330
1F
100
AcDbEntity
  8
0
  6
Continuous
 62
     7
370
    25
100
AcDbCircle
 10
136.844711334
 20
107.0204083051
 30
0.0
 40
66.5
  0
CIRCLE
  5
8F
330
1F
100
AcDbEntity
  8
0
  6
Continuous
 62
     7
370
    25
100
AcDbCircle
 10
136.844711334
 20
107.0204083051
 30
0.0
 40
114.5
  0
CIRCLE
  5
90
330
1F
100
AcDbEntity
  8
0
  6
Continuous
 62
     7
370
    25
100
AcDbCircle
 10
136.844711334
 20
202.2704083051
 30
0.0
 40
10.00000000000003
  0
CIRCLE
  5
91
330
1F
100
AcDbEntity
  8
0
  6
Continuous
 62
     7
370
    25
100
AcDbCircle
 10
204.1966322421
 20
174.3723292131
 30
0.0
 40
10.0
  0
CIRCLE
  5
92
330
1F
100
AcDbEntity
  8
0
  6
Continuous
 62
     7
370
    25
100
AcDbCircle
 10
69.492790426
 20
174.3723292131
 30
0.0
 40
10.0
  0
CIRCLE
  5
93
330
1F
100
AcDbEntity
  8
0
  6
Continuous
 62
     7
370
    25
100
AcDbCircle
 10
69.492790426
 20
39.6684873971
 30
0.0
 40
10.00000000000001
  0
CIRCLE
  5
94
330
1F
100
AcDbEntity
  8
0
  6
Continuous
 62
     7
370
    25
100
AcDbCircle
 10
232.094711334
 20
107.0204083051
 30
0.0
 40
10.00000000000003
  0
CIRCLE
  5
95
330
1F
100
AcDbEntity
  8
0
  6
Continuous
 62
     7
370
    25
100
AcDbCircle
 10
41.594711334
 20
107.0204083051
 30
0.0
 40
10.0
  0
CIRCLE
  5
96
330
1F
100
AcDbEntity
  8
0
  6
Continuous
 62
     7
370
    25
100
AcDbCircle
 10
204.1966322421
 20
39.6684873971
 30
0.0
 40
9.999999999999972
  0
INSERT
  5
A2
330
1F
100
AcDbEntity
  8
FORMAT
 62
     7
100
AcDbBlockReference
  2
SW_CENTERMARKSYMBOL_0
 10
136.844711334
 20
107.0204083051
 30
0.0
  0
INSERT
  5
AE
330
1F
100
AcDbEntity
  8
FORMAT
 62
     7
100
AcDbBlockReference
  2
SW_CENTERMARKSYMBOL_1
 10
136.844711334
 20
202.2704083051
 30
0.0
  0
INSERT
  5
BA
330
1F
100
AcDbEntity
  8
FORMAT
 62
     7
100
AcDbBlockReference
  2
SW_CENTERMARKSYMBOL_2
 10
204.1966322421
 20
174.3723292131
 30
0.0
  0
INSERT
  5
C6
330
1F
100
AcDbEntity
  8
FORMAT
 62
     7
100
AcDbBlockReference
  2
SW_CENTERMARKSYMBOL_3
 10
232.094711334
 20
107.0204083051
 30
0.0
  0
INSERT
  5
D2
330
1F
100
AcDbEntity
  8
FORMAT
 62
     7
100
AcDbBlockReference
  2
SW_CENTERMARKSYMBOL_4
 10
204.1966322421
 20
39.6684873971
 30
0.0
  0
INSERT
  5
DE
330
1F
100
AcDbEntity
  8
FORMAT
 62
     7
100
AcDbBlockReference
  2
SW_CENTERMARKSYMBOL_5
 10
69.492790426
 20
174.3723292131
 30
0.0
  0
INSERT
  5
EA
330
1F
100
AcDbEntity
  8
FORMAT
 62
     7
100
AcDbBlockReference
  2
SW_CENTERMARKSYMBOL_6
 10
41.594711334
 20
107.0204083051
 30
0.0
  0
INSERT
  5
F6
330
1F
100
AcDbEntity
  8
FORMAT
 62
     7
100
AcDbBlockReference
  2
SW_CENTERMARKSYMBOL_7
 10
69.492790426
 20
39.6684873971
 30
0.0
  0
INSERT
  5
102
330
1F
100
AcDbEntity
  8
FORMAT
 62
     7
100
AcDbBlockReference
  2
SW_CENTERMARKSYMBOL_8
 10
136.844711334
 20
11.7704083051
 30
0.0
  0
LINE
  5
103
330
1F
100
AcDbEntity
  8
0
  6
Continuous
 62
     7
370
    25
100
AcDbLine
 10
-83.0480949782
 20
221.5204083051
 30
0.0
 11
-101.0480949782
 21
221.5204083051
 31
0.0
  0
LINE
  5
104
330
1F
100
AcDbEntity
  8
0
  6
Continuous
 62
     7
370
    25
100
AcDbLine
 10
-101.0480949782
 20
-7.4795916949
 30
0.0
 11
-83.0480949782
 21
-7.4795916949
 31
0.0
  0
ARC
  5
105
330
1F
100
AcDbEntity
  8
0
  6
Continuous
 62
     7
370
    25
100
AcDbCircle
 10
-83.0480949782
 20
-6.4795916949
 30
0.0
 40
1.000000000000001
100
AcDbArc
 50
270.0
 51
0.0
  0
ARC
  5
106
330
1F
100
AcDbEntity
  8
0
  6
Continuous
 62
     7
370
    25
100
AcDbCircle
 10
-83.0480949782
 20
220.5204083051
 30
0.0
 40
1.0
100
AcDbArc
 50
0.0
 51
90.0
  0
ARC
  5
107
330
1F
100
AcDbEntity
  8
0
  6
Continuous
 62
     7
370
    25
100
AcDbCircle
 10
-101.0480949782
 20
-6.4795916949
 30
0.0
 40
1.000000000000001
100
AcDbArc
 50
180.0
 51
270.0
  0
ARC
  5
108
330
1F
100
AcDbEntity
  8
0
  6
Continuous
 62
     7
370
    25
100
AcDbCircle
 10
-101.0480949782
 20
220.5204083051
 30
0.0
 40
1.0
100
AcDbArc
 50
90.0
 51
180.0
  0
LINE
  5
109
330
1F
100
AcDbEntity
  8
0
  6
Continuous
 62
     7
370
    25
100
AcDbLine
 10
-82.0480949782
 20
107.0204083051
 30
0.0
 11
-82.0480949782
 21
-6.4795916949
 31
0.0
  0
LINE
  5
10A
330
1F
100
AcDbEntity
  8
0
  6
Continuous
 62
     7
370
    25
100
AcDbLine
 10
-82.0480949782
 20
220.5204083051
 30
0.0
 11
-82.0480949782
 21
107.0204083051
 31
0.0
  0
LINE
  5
10B
330
1F
100
AcDbEntity
  8
0
  6
Continuous
 62
     7
370
    25
100
AcDbLine
 10
-102.0480949782
 20
107.0204083051
 30
0.0
 11
-102.0480949782
 21
220.5204083051
 31
0.0
  0
LINE
  5
10C
330
1F
100
AcDbEntity
  8
0
  6
Continuous
 62
     7
370
    25
100
AcDbLine
 10
-102.0480949782
 20
-6.4795916949
 30
0.0
 11
-102.0480949782
 21
107.0204083051
 31
0.0
  0
LINE
  5
10D
330
1F
100
AcDbEntity
  8
0
  6
Continuous
 62
     1
370
    25
100
AcDbLine
 10
-101.0480949782
 20
107.0204083051
 30
0.0
 11
-101.0480949782
 21
-7.4795916949
 31
0.0
  0
LINE
  5
10E
330
1F
100
AcDbEntity
  8
0
  6
Continuous
 62
     1
370
    25
100
AcDbLine
 10
-101.0480949782
 20
221.5204083051
 30
0.0
 11
-101.0480949782
 21
107.0204083051
 31
0.0
  0
LINE
  5
10F
330
1F
100
AcDbEntity
  8
0
  6
Continuous
 62
     1
370
    25
100
AcDbLine
 10
-83.0480949782
 20
107.0204083051
 30
0.0
 11
-83.0480949782
 21
221.5204083051
 31
0.0
  0
LINE
  5
110
330
1F
100
AcDbEntity
  8
0
  6
Continuous
 62
     1
370
    25
100
AcDbLine
 10
-83.0480949782
 20
-7.4795916949
 30
0.0
 11
-83.0480949782
 21
107.0204083051
 31
0.0
  0
LINE
  5
111
330
1F
100
AcDbEntity
  8
0
  6
Continuous
 62
     7
370
    25
100
AcDbLine
 10
376.4044678585
 20
-7.4795916949
 30
0.0
 11
394.4044678585
 21
-7.4795916949
 31
0.0
  0
LINE
  5
112
330
1F
100
AcDbEntity
  8
0
  6
Continuous
 62
     7
370
    25
100
AcDbLine
 10
394.4044678585
 20
221.5204083051
 30
0.0
 11
376.4044678585
 21
221.5204083051
 31
0.0
  0
ARC
  5
113
330
1F
100
AcDbEntity
  8
0
  6
Continuous
 62
     7
370
    25
100
AcDbCircle
 10
376.4044678585
 20
220.5204083051
 30
0.0
 40
1.0
100
AcDbArc
 50
90.0
 51
180.0
  0
ARC
  5
114
330
1F
100
AcDbEntity
  8
0
  6
Continuous
 62
     7
370
    25
100
AcDbCircle
 10
376.4044678585
 20
-6.4795916949
 30
0.0
 40
1.000000000000001
100
AcDbArc
 50
180.0
 51
270.0
  0
ARC
  5
115
330
1F
100
AcDbEntity
  8
0
  6
Continuous
 62
     7
370
    25
100
AcDbCircle
 10
394.4044678585
 20
220.5204083051
 30
0.0
 40
1.0
100
AcDbArc
 50
0.0
 51
90.0
  0
ARC
  5
116
330
1F
100
AcDbEntity
  8
0
  6
Continuous
 62
     7
370
    25
100
AcDbCircle
 10
394.4044678585
 20
-6.4795916949
 30
0.0
 40
1.000000000000001
100
AcDbArc
 50
270.0
 51
0.0
  0
LINE
  5
117
330
1F
100
AcDbEntity
  8
0
  6
Continuous
 62
     7
370
    25
100
AcDbLine
 10
375.4044678585
 20
-6.4795916949
 30
0.0
 11
375.4044678585
 21
220.5204083051
 31
0.0
  0
LINE
  5
118
330
1F
100
AcDbEntity
  8
0
  6
Continuous
 62
     7
370
    25
100
AcDbLine
 10
395.4044678585
 20
220.5204083051
 30
0.0
 11
395.4044678585
 21
-6.4795916949
 31
0.0
  0
LINE
  5
119
330
1F
100
AcDbEntity
  8
0
  6
Continuous
 62
     1
370
    25
100
AcDbLine
 10
394.4044678585
 20
-7.4795916949
 30
0.0
 11
394.4044678585
 21
221.5204083051
 31
0.0
  0
LINE
  5
11A
330
1F
100
AcDbEntity
  8
0
  6
Continuous
 62
     1
370
    25
100
AcDbLine
 10
376.4044678585
 20
221.5204083051
 30
0.0
 11
376.4044678585
 21
-7.4795916949
 31
0.0
  0
LINE
  5
11B
330
1F
100
AcDbEntity
  8
0
  6
Continuous
 62
     7
370
    25
100
AcDbLine
 10
251.344711334
 20
299.5800633495
 30
0.0
 11
251.344711334
 21
317.5800633495
 31
0.0
  0
LINE
  5
11C
330
1F
100
AcDbEntity
  8
0
  6
Continuous
 62
     7
370
    25
100
AcDbLine
 10
22.344711334
 20
317.5800633495
 30
0.0
 11
22.344711334
 21
299.5800633495
 31
0.0
  0
ARC
  5
11D
330
1F
100
AcDbEntity
  8
0
  6
Continuous
 62
     7
370
    25
100
AcDbCircle
 10
23.344711334
 20
299.5800633495
 30
0.0
 40
1.0
100
AcDbArc
 50
180.0
 51
270.0
  0
ARC
  5
11E
330
1F
100
AcDbEntity
  8
0
  6
Continuous
 62
     7
370
    25
100
AcDbCircle
 10
250.344711334
 20
299.5800633495
 30
0.0
 40
1.0
100
AcDbArc
 50
270.0
 51
0.0
  0
ARC
  5
11F
330
1F
100
AcDbEntity
  8
0
  6
Continuous
 62
     7
370
    25
100
AcDbCircle
 10
23.344711334
 20
317.5800633495
 30
0.0
 40
1.0
100
AcDbArc
 50
90.0
 51
180.0
  0
ARC
  5
120
330
1F
100
AcDbEntity
  8
0
  6
Continuous
 62
     7
370
    25
100
AcDbCircle
 10
250.344711334
 20
317.5800633495
 30
0.0
 40
1.0
100
AcDbArc
 50
0.0
 51
90.0
  0
LINE
  5
121
330
1F
100
AcDbEntity
  8
0
  6
Continuous
 62
     7
370
    25
100
AcDbLine
 10
250.344711334
 20
298.5800633495
 30
0.0
 11
23.344711334
 21
298.5800633495
 31
0.0
  0
LINE
  5
122
330
1F
100
AcDbEntity
  8
0
  6
Continuous
 62
     7
370
    25
100
AcDbLine
 10
23.3447113342
 20
318.5800633495
 30
0.0
 11
250.344711334
 21
318.5800633495
 31
0.0
  0
LINE
  5
123
330
1F
100
AcDbEntity
  8
0
  6
Continuous
 62
     1
370
    25
100
AcDbLine
 10
251.344711334
 20
317.5800633495
 30
0.0
 11
22.344711334
 21
317.5800633495
 31
0.0
  0
LINE
  5
124
330
1F
100
AcDbEntity
  8
0
  6
Continuous
 62
     1
370
    25
100
AcDbLine
 10
22.344711334
 20
299.5800633495
 30
0.0
 11
251.344711334
 21
299.5800633495
 31
0.0
  0
LINE
  5
125
330
1F
100
AcDbEntity
  8
0
  6
Continuous
 62
     7
370
    25
100
AcDbLine
 10
22.344711334
 20
-161.1764941061
 30
0.0
 11
22.344711334
 21
-179.1764941061
 31
0.0
  0
LINE
  5
126
330
1F
100
AcDbEntity
  8
0
  6
Continuous
 62
     7
370
    25
100
AcDbLine
 10
251.344711334
 20
-179.1764941061
 30
0.0
 11
251.344711334
 21
-161.1764941061
 31
0.0
  0
ARC
  5
127
330
1F
100
AcDbEntity
  8
0
  6
Continuous
 62
     7
370
    25
100
AcDbCircle
 10
250.344711334
 20
-161.1764941061
 30
0.0
 40
1.0
100
AcDbArc
 50
0.0
 51
90.0
  0
ARC
  5
128
330
1F
100
AcDbEntity
  8
0
  6
Continuous
 62
     7
370
    25
100
AcDbCircle
 10
23.344711334
 20
-161.1764941061
 30
0.0
 40
1.0
100
AcDbArc
 50
90.0
 51
180.0
  0
ARC
  5
129
330
1F
100
AcDbEntity
  8
0
  6
Continuous
 62
     7
370
    25
100
AcDbCircle
 10
250.344711334
 20
-179.1764941061
 30
0.0
 40
1.0
100
AcDbArc
 50
270.0
 51
0.0
  0
ARC
  5
12A
330
1F
100
AcDbEntity
  8
0
  6
Continuous
 62
     7
370
    25
100
AcDbCircle
 10
23.344711334
 20
-179.1764941061
 30
0.0
 40
1.0
100
AcDbArc
 50
180.0
 51
270.0
  0
LINE
  5
12B
330
1F
100
AcDbEntity
  8
0
  6
Continuous
 62
     7
370
    25
100
AcDbLine
 10
23.3447113342
 20
-160.1764941061
 30
0.0
 11
250.344711334
 21
-160.1764941061
 31
0.0
  0
LINE
  5
12C
330
1F
100
AcDbEntity
  8
0
  6
Continuous
 62
     7
370
    25
100
AcDbLine
 10
250.344711334
 20
-180.1764941061
 30
0.0
 11
23.344711334
 21
-180.1764941061
 31
0.0
  0
LINE
  5
12D
330
1F
100
AcDbEntity
  8
0
  6
Continuous
 62
     1
370
    25
100
AcDbLine
 10
22.344711334
 20
-179.1764941061
 30
0.0
 11
251.344711334
 21
-179.1764941061
 31
0.0
  0
LINE
  5
12E
330
1F
100
AcDbEntity
  8
0
  6
Continuous
 62
     1
370
    25
100
AcDbLine
 10
251.344711334
 20
-161.1764941061
 30
0.0
 11
22.344711334
 21
-161.1764941061
 31
0.0
  0
SPLINE
  5
12F
330
1F
100
AcDbEntity
  8
0
  6
Continuous
 62
     7
370
    25
100
AcDbSpline
210
0.0
220
0.0
230
1.0
 70
     8
 71
     3
 72
    75
 73
    71
 74
     0
 42
0.00000001
 43
0.00000001
 40
0.0
 40
0.0
 40
0.0
 40
0.0
 40
0.0142288368024132
 40
0.0289170483401339
 40
0.0436193755984179
 40
0.0583365344838627
 40
0.073068336947371
 40
0.087813872492311
 40
0.1025717237656097
 40
0.1173401792653485
 40
0.1321174174196803
 40
0.146901648823897
 40
0.1616912139940094
 40
0.1764846410949738
 40
0.1912806716900591
 40
0.2060782634301369
 40
0.2208765777910657
 40
0.2356748228010763
 40
0.2504725039100526
 40
0.2652692979963021
 40
0.2800649849431521
 40
0.294859427589417
 40
0.3096525545860928
 40
0.3244443460909483
 40
0.3392348220617286
 40
0.3540240328298257
 40
0.3688120516166165
 40
0.3835989686690233
 40
0.3983848867221484
 40
0.4131699175349958
 40
0.4279541792838121
 40
0.4427377946333982
 40
0.4575208893381665
 40
0.4723035912511646
 40
0.48708602964089
 40
0.5018683347326791
 40
0.516650637404211
 40
0.531433040846876
 40
0.5462156610531637
 40
0.5609986297800439
 40
0.5757820786908756
 40
0.5905661390052902
 40
0.6053509409744615
 40
0.6201366131042737
 40
0.6349232810366815
 40
0.6497110659806312
 40
0.6645000825600028
 40
0.6792904359171499
 40
0.6940822178764051
 40
0.7088755019335
 40
0.7236703367957977
 40
0.738466738158777
 40
0.753264678373306
 40
0.768064073647934
 40
0.7828647684599211
 40
0.7976665169465286
 40
0.8124689612554394
 40
0.8272714991996741
 40
0.8420733254542492
 40
0.8568735282244416
 40
0.8716709789116077
 40
0.8864643214446056
 40
0.9012519787808314
 40
0.9160321853220663
 40
0.9308030545896695
 40
0.9455626900660022
 40
0.9603093425467087
 40
0.9750416089314026
 40
0.9897586554627983
 40
1.0
 40
1.0
 40
1.0
 40
1.0
 10
452.8376050046398
 20
-58.57095117572334
 30
0.0
 10
451.9401580994526
 20
-58.35001173940312
 30
0.0
 10
450.1162904214142
 20
-57.90099988769433
 30
0.0
 10
447.2678979632371
 20
-57.45192584514589
 30
0.0
 10
444.3228743867954
 20
-57.16650877557267
 30
0.0
 10
441.3074558793803
 20
-57.06780521464722
 30
0.0
 10
438.2290260573256
 20
-57.1514069042791
 30
0.0
 10
435.092446423
 20
-57.41861237367554
 30
0.0
 10
431.9034733834212
 20
-57.86873199909823
 30
0.0
 10
428.6677998360356
 20
-58.50113776519977
 30
0.0
 10
425.3912692360742
 20
-59.31471093333944
 30
0.0
 10
422.0797783561998
 20
-60.307998054868
 30
0.0
 10
418.7392696560393
 20
-61.47918367991402
 30
0.0
 10
415.3757065980828
 20
-62.82611569767549
 30
0.0
 10
411.9950600433276
 20
-64.34631745920825
 30
0.0
 10
408.603296949919
 20
-66.03700265770577
 30
0.0
 10
405.2063826888194
 20
-67.8950820923899
 30
0.0
 10
401.8102638396873
 20
-69.9171783953224
 30
0.0
 10
398.4208592983686
 20
-72.09963781769179
 30
0.0
 10
395.0440448085243
 20
-74.43854732606104
 30
0.0
 10
391.685658418237
 20
-76.92973688262195
 30
0.0
 10
388.3514976642593
 20
-79.56878453750531
 30
0.0
 10
385.0473127095827
 20
-82.35102352185268
 30
0.0
 10
381.7787989582066
 20
-85.27154945632945
 30
0.0
 10
378.5515892132329
 20
-88.32522781779126
 30
0.0
 10
375.3712454635109
 20
-91.50670176142803
 30
0.0
 10
372.2432503901542
 20
-94.81040035902802
 30
0.0
 10
369.1729986823352
 20
-98.23054728590598
 30
0.0
 10
366.1657882454813
 20
-101.7611699682172
 30
0.0
 10
363.2268113767958
 20
-105.3961091873847
 30
0.0
 10
360.3611459743518
 20
-109.1290291278664
 30
0.0
 10
357.5737468377236
 20
-112.9534278472951
 30
0.0
 10
354.8694371106391
 20
-116.862648143223
 30
0.0
 10
352.2528999096439
 20
-120.8498887875014
 30
0.0
 10
349.7286701771948
 20
-124.9082160973446
 30
0.0
 10
347.3011267932017
 20
-129.0305758102917
 30
0.0
 10
344.9744864500757
 20
-133.2098025800877
 30
0.0
 10
342.7527953749747
 20
-137.438633378254
 30
0.0
 10
340.6399213910476
 20
-141.709721572831
 30
0.0
 10
338.6395461288381
 20
-146.0156525342776
 30
0.0
 10
336.7551596866076
 20
-150.348955437389
 30
0.0
 10
334.9900556128827
 20
-154.702114744918
 30
0.0
 10
333.3473255210844
 20
-159.0675832288449
 30
0.0
 10
331.8298541324117
 20
-163.4377949950754
 30
0.0
 10
330.4403147578307
 20
-167.8051784624172
 30
0.0
 10
329.1811652257771
 20
-172.1621692426556
 30
0.0
 10
328.0546442567338
 20
-176.5012228634215
 30
0.0
 10
327.0627682784901
 20
-180.8148272698513
 30
0.0
 10
326.2073286659243
 20
-185.0955150349927
 30
0.0
 10
325.489889375829
 20
-189.3358752029949
 30
0.0
 10
324.9117849296403
 20
-193.5285646842448
 30
0.0
 10
324.474118674028
 20
-197.6663191191225
 30
0.0
 10
324.1777612201853
 20
-201.7419631293123
 30
0.0
 10
324.0233489271008
 20
-205.7484198853163
 30
0.0
 10
324.0112822514996
 20
-209.6787199424726
 30
0.0
 10
324.1417237433181
 20
-213.5260093342208
 30
0.0
 10
324.4145947476948
 20
-217.2835478558576
 30
0.0
 10
324.8295695813813
 20
-220.9447138586713
 30
0.0
 10
325.3860691068926
 20
-224.503019676334
 30
0.0
 10
326.0832556747731
 20
-227.9521271238615
 30
0.0
 10
326.9200259064966
 20
-231.2858592921105
 30
0.0
 10
327.8950037301924
 20
-234.4981998124226
 30
0.0
 10
329.0065181534114
 20
-237.5833242982009
 30
0.0
 10
330.2526393708895
 20
-240.535556247894
 30
0.0
 10
331.6310021069448
 20
-243.3496261414586
 30
0.0
 10
333.1394365736514
 20
-246.0198241197925
 30
0.0
 10
334.7736151742402
 20
-248.5432997264864
 30
0.0
 10
336.5358612028236
 20
-250.907919908514
 30
0.0
 10
338.2138386118378
 20
-252.9124096179474
 30
0.0
 10
339.3546746212694
 20
-254.0569166731612
 30
0.0
 10
339.8228015370198
 20
-254.5265499538277
 30
0.0
  0
LINE
  5
130
330
1F
100
AcDbEntity
  8
0
  6
Continuous
 62
     7
370
    25
100
AcDbLine
 10
475.2526293442
 20
-69.8961957865
 30
0.0
 11
462.5247072828
 21
-62.5485227801
 31
0.0
  0
LINE
  5
131
330
1F
100
AcDbEntity
  8
0
  6
Continuous
 62
     7
370
    25
100
AcDbLine
 10
348.034012396
 20
-260.8737122652
 30
0.0
 11
360.7619344573
 21
-268.2213852716
 31
0.0
  0
SPLINE
  5
132
330
1F
100
AcDbEntity
  8
0
  6
Continuous
 62
     7
370
    25
100
AcDbSpline
210
0.0
220
0.0
230
1.0
 70
     8
 71
     3
 72
    60
 73
    56
 74
     0
 42
0.00000001
 43
0.00000001
 40
0.0
 40
0.0
 40
0.0
 40
0.0
 40
0.0180099521715871
 40
0.036884271205167
 40
0.0557765497154972
 40
0.0746878474259346
 40
0.0936180415203262
 40
0.1125660516969471
 40
0.1315301149243936
 40
0.1505080611406943
 40
0.1694975550275658
 40
0.1884962851570423
 40
0.2075020958102042
 40
0.2265130664180321
 40
0.2455275486489572
 40
0.2645441726110766
 40
0.2835618327727931
 40
0.3025795094997296
 40
0.3215965170784855
 40
0.3406124238059127
 40
0.3596269334388015
 40
0.3786398590214474
 40
0.397651100438425
 40
0.4166606256375256
 40
0.4356684552332085
 40
0.4546746500884446
 40
0.4736793014410666
 40
0.4926825231554137
 40
0.5116844457188539
 40
0.5306852116511059
 40
0.5496849720441032
 40
0.56868388399671
 40
0.58768210874955
 40
0.6066798103600579
 40
0.6256771547861875
 40
0.6446743092697012
 40
0.6636714419269308
 40
0.6826686915650586
 40
0.7016662009698997
 40
0.7206641394581191
 40
0.739662676266333
 40
0.7586619801201826
 40
0.777662218589706
 40
0.7966635571323075
 40
0.8156661577103712
 40
0.83467017684686
 40
0.853675762952406
 40
0.8726830527207924
 40
0.8916921663466851
 40
0.9107032012704858
 40
0.9297162241026712
 40
0.9487312603286822
 40
0.9677482813538042
 40
0.9867671884303859
 40
1.0
 40
1.0
 40
1.0
 40
1.0
 10
370.1840629995817
 20
-272.1263789810708
 30
0.0
 10
371.0651697955658
 20
-272.3502952040656
 30
0.0
 10
372.8696710909696
 20
-272.8088742506666
 30
0.0
 10
375.6959561988856
 20
-273.2752613205418
 30
0.0
 10
378.6329784572402
 20
-273.581068368874
 30
0.0
 10
381.6410345726346
 20
-273.7000910895156
 30
0.0
 10
384.712675651862
 20
-273.6368674705587
 30
0.0
 10
387.8430842113258
 20
-273.3900149583373
 30
0.0
 10
391.0265142991377
 20
-272.9601939920718
 30
0.0
 10
394.2572876844778
 20
-272.3479876683525
 30
0.0
 10
397.5295697510683
 20
-271.5544743321764
 30
0.0
 10
400.8374699744937
 20
-270.5810670899932
 30
0.0
 10
404.1750494356489
 20
-269.4295428789891
 30
0.0
 10
407.536346308087
 20
-268.1020168920729
 30
0.0
 10
410.915389917656
 20
-266.6009305185621
 30
0.0
 10
414.3062124354274
 20
-264.9290363028468
 30
0.0
 10
417.7028481622339
 20
-263.0893902253251
 30
0.0
 10
421.0993477745482
 20
-261.0853383285761
 30
0.0
 10
424.4897890476802
 20
-258.9205041337607
 30
0.0
 10
427.8682910026143
 20
-256.5987724845606
 30
0.0
 10
431.2290114904873
 20
-254.124284996518
 30
0.0
 10
434.56614814563
 20
-251.5014359859105
 30
0.0
 10
437.8739451870501
 20
-248.7348653785567
 30
0.0
 10
441.1467007484006
 20
-245.8294515220518
 30
0.0
 10
444.3787746731313
 20
-242.7903037533491
 30
0.0
 10
447.5645966910708
 20
-239.6227546196879
 30
0.0
 10
450.6986748852863
 20
-236.3323516886073
 30
0.0
 10
453.7756043593468
 20
-232.9248489117607
 30
0.0
 10
456.790076021031
 20
-229.4061975288126
 30
0.0
 10
459.7368854066055
 20
-225.782536513269
 30
0.0
 10
462.6109414784676
 20
-222.0601825730301
 30
0.0
 10
465.4072753373026
 20
-218.245619725969
 30
0.0
 10
468.1210487974905
 20
-214.3454884758606
 30
0.0
 10
470.7475627810964
 20
-210.3665746173383
 30
0.0
 10
473.2822654914523
 20
-206.3157977006553
 30
0.0
 10
475.7207603318838
 20
-202.2001991888189
 30
0.0
 10
478.058812312915
 20
-198.0269325292336
 30
0.0
 10
480.2923558156889
 20
-193.8032506760017
 30
0.0
 10
482.4175028648249
 20
-189.5364916060223
 30
0.0
 10
484.4305507672321
 20
-185.234063204679
 30
0.0
 10
486.3279879412249
 20
-180.9034305287854
 30
0.0
 10
488.1064987326721
 20
-176.552104790317
 30
0.0
 10
489.7629688382457
 20
-172.1876303435273
 30
0.0
 10
491.2944903437355
 20
-167.8175716393078
 30
0.0
 10
492.6983661680463
 20
-163.4495003092848
 30
0.0
 10
493.9721146450049
 20
-159.090982008143
 30
0.0
 10
495.1134714819896
 20
-154.7495646549926
 30
0.0
 10
496.1203993990848
 20
-150.4327622281965
 30
0.0
 10
496.9910670243182
 20
-146.1480562383332
 30
0.0
 10
497.7239405506161
 20
-141.902832631488
 30
0.0
 10
498.3174526531222
 20
-137.7045614831568
 30
0.0
 10
498.7712477281502
 20
-133.5600726050261
 30
0.0
 10
499.0815420371087
 20
-129.4782083312126
 30
0.0
 10
499.2405044461436
 20
-125.8674918599021
 30
0.0
 10
499.2570946429605
 20
-123.6411099470336
 30
0.0
 10
499.2639015654315
 20
-122.7276301831122
 30
0.0
  0
SPLINE
  5
133
330
1F
100
AcDbEntity
  8
0
  6
Continuous
 62
     7
370
    25
100
AcDbSpline
210
0.0
220
0.0
230
1.0
 70
     8
 71
     3
 72
    23
 73
    19
 74
     0
 42
0.00000001
 43
0.00000001
 40
0.0
 40
0.0
 40
0.0
 40
0.0
 40
0.0353368052385597
 40
0.1024423723394164
 40
0.1695554892515818
 40
0.236668624069064
 40
0.3037781187966115
 40
0.3708797342831184
 40
0.4379682402731207
 40
0.5050373739330354
 40
0.572079880314374
 40
0.6390876750124977
 40
0.7060521712093386
 40
0.7729648054362824
 40
0.8398177738710635
 40
0.9066049508540295
 40
0.9733229059397301
 40
1.0
 40
1.0
 40
1.0
 40
1.0
 10
499.2639015654315
 20
-122.7276301831122
 30
0.0
 10
499.2599281394858
 20
-122.0413673000569
 30
0.0
 10
499.2484090681535
 20
-120.0518722873057
 30
0.0
 10
499.1204246061445
 20
-116.8225042280964
 30
0.0
 10
498.833278626678
 20
-113.0745963454896
 30
0.0
 10
498.4021402467382
 20
-109.4247630323203
 30
0.0
 10
497.8300755836149
 20
-105.8782178323025
 30
0.0
 10
497.1172942028342
 20
-102.4416412320002
 30
0.0
 10
496.2651059620421
 20
-99.1210954723199
 30
0.0
 10
495.2748695715392
 20
-95.92260565729197
 30
0.0
 10
494.1483062036694
 20
-92.85196110794296
 30
0.0
 10
492.8873559364043
 20
-89.91484374488405
 30
0.0
 10
491.4944916898769
 20
-87.11639596028147
 30
0.0
 10
489.9716444164619
 20
-84.46267182900488
 30
0.0
 10
488.3241883053611
 20
-81.955094522747
 30
0.0
 10
486.5460500822501
 20
-79.61095350687539
 30
0.0
 10
485.0487434927538
 20
-77.83102820588006
 30
0.0
 10
484.1039505467198
 20
-76.89097891226128
 30
0.0
 10
483.8340825984795
 20
-76.62246592729606
 30
0.0
  0
SPLINE
  5
134
330
1F
100
AcDbEntity
  8
0
  6
Continuous
 62
     7
370
    25
100
AcDbSpline
210
0.0
220
0.0
230
1.0
 70
     8
 71
     3
 72
    13
 73
     9
 74
     0
 42
0.00000001
 43
0.00000001
 40
0.0
 40
0.0
 40
0.0
 40
0.0
 40
0.1303595019415092
 40
0.3268338148584486
 40
0.495496421697692
 40
0.6747138501545027
 40
0.8496282101272629
 40
1.0
 40
1.0
 40
1.0
 40
1.0
 10
457.853563763859
 20
-180.5474503304729
 30
0.0
 10
457.9940219011759
 20
-180.6258198756345
 30
0.0
 10
458.34617474131
 20
-180.822305878054
 30
0.0
 10
458.7811403352856
 20
-181.3096667619676
 30
0.0
 10
459.187361131516
 20
-181.9934032147654
 30
0.0
 10
459.4763406585917
 20
-182.8126869575001
 30
0.0
 10
459.6523033173887
 20
-183.7339098001981
 30
0.0
 10
459.672977340047
 20
-184.4104088985161
 30
0.0
 10
459.6825344324485
 20
-184.7231377998532
 30
0.0
  0
SPLINE
  5
135
330
1F
100
AcDbEntity
  8
0
  6
Continuous
 62
     7
370
    25
100
AcDbSpline
210
0.0
220
0.0
230
1.0
 70
     8
 71
     3
 72
    25
 73
    21
 74
     0
 42
0.00000001
 43
0.00000001
 40
0.0
 40
0.0
 40
0.0
 40
0.0
 40
0.0298832182891881
 40
0.0872265873274874
 40
0.1447549071631254
 40
0.2024588056115303
 40
0.2603149865525536
 40
0.3182758350333103
 40
0.3762847282035134
 40
0.4342772141427324
 40
0.4921770275869436
 40
0.5499234883147194
 40
0.6074602569846754
 40
0.6647465328167788
 40
0.7217833167680375
 40
0.7786682698894569
 40
0.8356000204518008
 40
0.8930795340969394
 40
0.9521018185559933
 40
1.0
 40
1.0
 40
1.0
 40
1.0
 10
459.6825344324485
 20
-184.7231377998532
 30
0.0
 10
459.6789861192935
 20
-184.9173352914582
 30
0.0
 10
459.6686288932315
 20
-185.4841813485441
 30
0.0
 10
459.5514816530096
 20
-186.4891159657504
 30
0.0
 10
459.2864224902538
 20
-187.7369775593329
 30
0.0
 10
458.8902833482494
 20
-189.0185014783645
 30
0.0
 10
458.3717079085994
 20
-190.305024194422
 30
0.0
 10
457.7396922110641
 20
-191.5700214285151
 30
0.0
 10
457.006998453627
 20
-192.7867694682017
 30
0.0
 10
456.1889459875744
 20
-193.9297452930434
 30
0.0
 10
455.3033129927627
 20
-194.9751862309029
 30
0.0
 10
454.3699012165813
 20
-195.9018012287869
 30
0.0
 10
453.4101076421077
 20
-196.6914539260884
 30
0.0
 10
452.4465466773437
 20
-197.3297572936798
 30
0.0
 10
451.5022072350044
 20
-197.8070765661379
 30
0.0
 10
450.6000442514932
 20
-198.118495885516
 30
0.0
 10
449.7594550546405
 20
-198.2669495351779
 30
0.0
 10
448.9975033267706
 20
-198.2533948799764
 30
0.0
 10
448.3586854605678
 20
-198.117671510847
 30
0.0
 10
448.0142086299924
 20
-197.9182543371467
 30
0.0
 10
447.8598900568848
 20
-197.828919522822
 30
0.0
  0
SPLINE
  5
136
330
1F
100
AcDbEntity
  8
0
  6
Continuous
 62
     7
370
    25
100
AcDbSpline
210
0.0
220
0.0
230
1.0
 70
     8
 71
     3
 72
    20
 73
    16
 74
     0
 42
0.00000001
 43
0.00000001
 40
0.0
 40
0.0
 40
0.0
 40
0.0
 40
0.0355254841955924
 40
0.1215936471025911
 40
0.2074619943706003
 40
0.293118913446734
 40
0.3785760961236466
 40
0.4638600693191756
 40
0.54900409882552
 40
0.6340421251569164
 40
0.7190050441252954
 40
0.8039189248483977
 40
0.8888045490278411
 40
0.9736777171224289
 40
1.0
 40
1.0
 40
1.0
 40
1.0
 10
442.7579148672457
 20
-107.3403177810539
 30
0.0
 10
442.970617621966
 20
-107.5370249236103
 30
0.0
 10
443.6986387673727
 20
-108.2102976295605
 30
0.0
 10
444.8242637176455
 20
-109.5319752566661
 30
0.0
 10
446.1312609635717
 20
-111.2948956932293
 30
0.0
 10
447.3091180706949
 20
-113.2180999881547
 30
0.0
 10
448.3631579969124
 20
-115.2828782432558
 30
0.0
 10
449.2883576103808
 20
-117.4865169275745
 30
0.0
 10
450.0828530947235
 20
-119.8217672465464
 30
0.0
 10
450.7443163758489
 20
-122.2822193876635
 30
0.0
 10
451.2707318622425
 20
-124.8608884253354
 30
0.0
 10
451.6608847252152
 20
-127.550169722352
 30
0.0
 10
451.9117729064415
 20
-130.3432113372898
 30
0.0
 10
452.0017926131483
 20
-132.5649802441665
 30
0.0
 10
452.0076750693876
 20
-133.8525492945984
 30
0.0
 10
452.0090675694926
 20
-134.1573437486302
 30
0.0
  0
SPLINE
  5
137
330
1F
100
AcDbEntity
  8
0
  6
Continuous
 62
     7
370
    25
100
AcDbSpline
210
0.0
220
0.0
230
1.0
 70
     8
 71
     3
 72
    49
 73
    45
 74
     0
 42
0.00000001
 43
0.00000001
 40
0.0
 40
0.0
 40
0.0
 40
0.0
 40
0.0129322521517713
 40
0.0375466704030212
 40
0.0621669610671513
 40
0.0867912986320693
 40
0.1114203237934421
 40
0.1360542852020978
 40
0.1606931479088901
 40
0.1853366762233046
 40
0.2099844951794877
 40
0.2346361352222697
 40
0.2592910640376201
 40
0.2839487087165952
 40
0.3086084707719691
 40
0.3332697359661697
 40
0.3579318804660673
 40
0.3825942745075305
 40
0.4072561553105044
 40
0.431916805234192
 40
0.4565755880338813
 40
0.4812318694724271
 40
0.505885021582403
 40
0.5305344297754596
 40
0.555179504066854
 40
0.5798196960760944
 40
0.6044545239529275
 40
0.6290836079868357
 40
0.6537067203722058
 40
0.6783238533615144
 40
0.7029353107025278
 40
0.7275418275325092
 40
0.752144723255938
 40
0.7767460894447064
 40
0.8013479241133062
 40
0.8259540607334567
 40
0.8505697621708058
 40
0.8752018420779527
 40
0.8998586907620326
 40
0.9245500220759734
 40
0.9492861731618457
 40
0.9740767955124263
 40
0.9989288796769158
 40
1.0
 40
1.0
 40
1.0
 40
1.0
 10
452.0090675694926
 20
-134.1573437486302
 30
0.0
 10
452.0051933782604
 20
-134.6773745074079
 30
0.0
 10
451.9939453002331
 20
-136.187198416663
 30
0.0
 10
451.8687605799948
 20
-138.7481313647873
 30
0.0
 10
451.5876551523592
 20
-141.8557999518364
 30
0.0
 10
451.1658124759952
 20
-145.0252345904225
 30
0.0
 10
450.6067085928292
 20
-148.2452606853786
 30
0.0
 10
449.9112054059069
 20
-151.5065355048557
 30
0.0
 10
449.0814151695162
 20
-154.7990659455293
 30
0.0
 10
448.1196610526974
 20
-158.1128875712922
 30
0.0
 10
447.0287459927384
 20
-161.4379285233977
 30
0.0
 10
445.8118685626148
 20
-164.7640903328734
 30
0.0
 10
444.4726316050526
 20
-168.0812691905679
 30
0.0
 10
443.0150244950968
 20
-171.3793919583786
 30
0.0
 10
441.4434111910696
 20
-174.6484471821931
 30
0.0
 10
439.762515607829
 20
-177.8785165364904
 30
0.0
 10
437.9774066851518
 20
-181.0598053502681
 30
0.0
 10
436.0934858726927
 20
-184.1826672022441
 30
0.0
 10
434.1164702836479
 20
-187.2376360281433
 30
0.0
 10
432.0523736053699
 20
-190.2154591411488
 30
0.0
 10
429.9074840478631
 20
-193.1071309024153
 30
0.0
 10
427.6883463918381
 20
-195.9039183764282
 30
0.0
 10
425.4017448642015
 20
-198.5973855704372
 30
0.0
 10
423.0546830532698
 20
-201.1794206187065
 30
0.0
 10
420.6543629669752
 20
-203.6422625401044
 30
0.0
 10
418.2081631075366
 20
-205.9785275666236
 30
0.0
 10
415.7236153760477
 20
-208.1812350231182
 30
0.0
 10
413.2083805462894
 20
-210.2438326986217
 30
0.0
 10
410.6702219559378
 20
-212.1602215815157
 30
0.0
 10
408.1169769694703
 20
-213.9247796992593
 30
0.0
 10
405.5565256510519
 20
-215.5323846545178
 30
0.0
 10
402.9967561002386
 20
-216.9784340050472
 30
0.0
 10
400.445525638727
 20
-218.2588628153183
 30
0.0
 10
397.9106555673949
 20
-219.3701386473454
 30
0.0
 10
395.3998592713615
 20
-220.309292470766
 30
0.0
 10
392.920697111016
 20
-221.0739053444472
 30
0.0
 10
390.4804600709252
 20
-221.6621577552738
 30
0.0
 10
388.0862476983441
 20
-222.0725771159153
 30
0.0
 10
385.7445326084655
 20
-222.3047716674998
 30
0.0
 10
383.4626195096923
 20
-222.3564312152138
 30
0.0
 10
381.2431269065482
 20
-222.2342231901111
 30
0.0
 10
379.1047569772657
 20
-221.9126726461407
 30
0.0
 10
377.6764262697553
 20
-221.6237329898319
 30
0.0
 10
376.9879015987978
 20
-221.3928738579687
 30
0.0
 10
376.9594524628756
 20
-221.3833349945143
 30
0.0
  0
SPLINE
  5
138
330
1F
100
AcDbEntity
  8
0
  6
Continuous
 62
     7
370
    25
100
AcDbSpline
210
0.0
220
0.0
230
1.0
 70
     8
 71
     3
 72
    13
 73
     9
 74
     0
 42
0.00000001
 43
0.00000001
 40
0.0
 40
0.0
 40
0.0
 40
0.0
 40
0.1303595019415474
 40
0.3268338148584888
 40
0.4954964216977275
 40
0.6747138501545346
 40
0.8496282101272953
 40
1.0
 40
1.0
 40
1.0
 40
1.0
 10
477.5804846718801
 20
-114.1637491126907
 30
0.0
 10
477.720942809197
 20
-114.2421186578523
 30
0.0
 10
478.0730956493312
 20
-114.4386046602718
 30
0.0
 10
478.5080612433068
 20
-114.9259655441855
 30
0.0
 10
478.9142820395371
 20
-115.6097019969833
 30
0.0
 10
479.2032615666128
 20
-116.428985739718
 30
0.0
 10
479.3792242254098
 20
-117.3502085824159
 30
0.0
 10
479.399898248068
 20
-118.0267076807338
 30
0.0
 10
479.4094553404695
 20
-118.3394365820709
 30
0.0
  0
SPLINE
  5
139
330
1F
100
AcDbEntity
  8
0
  6
Continuous
 62
     7
370
    25
100
AcDbSpline
210
0.0
220
0.0
230
1.0
 70
     8
 71
     3
 72
    25
 73
    21
 74
     0
 42
0.00000001
 43
0.00000001
 40
0.0
 40
0.0
 40
0.0
 40
0.0
 40
0.0298832182891882
 40
0.0872265873275022
 40
0.1447549071631342
 40
0.2024588056115368
 40
0.2603149865525614
 40
0.3182758350333162
 40
0.3762847282035208
 40
0.434277214142745
 40
0.4921770275869543
 40
0.5499234883147327
 40
0.6074602569846835
 40
0.6647465328167912
 40
0.7217833167680502
 40
0.7786682698894688
 40
0.8356000204518101
 40
0.8930795340969487
 40
0.9521018185560014
 40
1.0
 40
1.0
 40
1.0
 40
1.0
 10
479.4094553404695
 20
-118.3394365820709
 30
0.0
 10
479.4059070273145
 20
-118.5336340736759
 30
0.0
 10
479.3955498012525
 20
-119.1004801307619
 30
0.0
 10
479.2784025610306
 20
-120.1054147479683
 30
0.0
 10
479.0133433982748
 20
-121.3532763415508
 30
0.0
 10
478.6172042562704
 20
-122.6348002605823
 30
0.0
 10
478.0986288166204
 20
-123.9213229766398
 30
0.0
 10
477.4666131190851
 20
-125.1863202107329
 30
0.0
 10
476.733919361648
 20
-126.4030682504196
 30
0.0
 10
475.9158668955953
 20
-127.5460440752613
 30
0.0
 10
475.0302339007835
 20
-128.5914850131207
 30
0.0
 10
474.0968221246021
 20
-129.5181000110048
 30
0.0
 10
473.1370285501285
 20
-130.3077527083063
 30
0.0
 10
472.1734675853646
 20
-130.9460560758977
 30
0.0
 10
471.2291281430253
 20
-131.4233753483557
 30
0.0
 10
470.326965159514
 20
-131.7347946677336
 30
0.0
 10
469.4863759626612
 20
-131.8832483173956
 30
0.0
 10
468.7244242347915
 20
-131.869693662194
 30
0.0
 10
468.0856063685887
 20
-131.7339702930646
 30
0.0
 10
467.7411295380134
 20
-131.5345531193643
 30
0.0
 10
467.5868109649058
 20
-131.4452183050398
 30
0.0
  0
SPLINE
  5
13A
330
1F
100
AcDbEntity
  8
0
  6
Continuous
 62
     7
370
    25
100
AcDbSpline
210
0.0
220
0.0
230
1.0
 70
     8
 71
     3
 72
    13
 73
     9
 74
     0
 42
0.00000001
 43
0.00000001
 40
0.0
 40
0.0
 40
0.0
 40
0.0
 40
0.130359501941495
 40
0.3268338148584397
 40
0.4954964216976899
 40
0.6747138501545066
 40
0.8496282101272639
 40
1.0
 40
1.0
 40
1.0
 40
1.0
 10
410.2285637638574
 20
-230.8206977703653
 30
0.0
 10
410.3690219011742
 20
-230.8990673155269
 30
0.0
 10
410.7211747413083
 20
-231.0955533179464
 30
0.0
 10
411.156140335284
 20
-231.5829142018599
 30
0.0
 10
411.5623611315144
 20
-232.2666506546578
 30
0.0
 10
411.8513406585901
 20
-233.0859343973924
 30
0.0
 10
412.0273033173871
 20
-234.0071572400904
 30
0.0
 10
412.0479773400454
 20
-234.6836563384084
 30
0.0
 10
412.0575344324469
 20
-234.9963852397456
 30
0.0
  0
SPLINE
  5
13B
330
1F
100
AcDbEntity
  8
0
  6
Continuous
 62
     7
370
    25
100
AcDbSpline
210
0.0
220
0.0
230
1.0
 70
     8
 71
     3
 72
    25
 73
    21
 74
     0
 42
0.00000001
 43
0.00000001
 40
0.0
 40
0.0
 40
0.0
 40
0.0
 40
0.029883218289188
 40
0.0872265873274983
 40
0.1447549071631348
 40
0.2024588056115369
 40
0.2603149865525622
 40
0.3182758350333171
 40
0.3762847282035219
 40
0.4342772141427468
 40
0.4921770275869547
 40
0.5499234883147317
 40
0.607460256984682
 40
0.6647465328167915
 40
0.7217833167680481
 40
0.778668269889469
 40
0.8356000204518096
 40
0.893079534096945
 40
0.9521018185559993
 40
1.0
 40
1.0
 40
1.0
 40
1.0
 10
412.0575344324469
 20
-234.9963852397456
 30
0.0
 10
412.0539861192919
 20
-235.1905827313505
 30
0.0
 10
412.0436288932299
 20
-235.7574287884365
 30
0.0
 10
411.926481653008
 20
-236.7623634056429
 30
0.0
 10
411.6614224902521
 20
-238.0102249992255
 30
0.0
 10
411.2652833482477
 20
-239.291748918257
 30
0.0
 10
410.7467079085977
 20
-240.5782716343145
 30
0.0
 10
410.1146922110624
 20
-241.8432688684076
 30
0.0
 10
409.3819984536253
 20
-243.0600169080943
 30
0.0
 10
408.5639459875726
 20
-244.2029927329359
 30
0.0
 10
407.6783129927609
 20
-245.2484336707955
 30
0.0
 10
406.7449012165795
 20
-246.1750486686794
 30
0.0
 10
405.7851076421059
 20
-246.9647013659809
 30
0.0
 10
404.8215466773419
 20
-247.6030047335723
 30
0.0
 10
403.8772072350026
 20
-248.0803240060304
 30
0.0
 10
402.9750442514914
 20
-248.3917433254083
 30
0.0
 10
402.1344550546387
 20
-248.5401969750703
 30
0.0
 10
401.3725033267689
 20
-248.5266423198687
 30
0.0
 10
400.7336854605661
 20
-248.3909189507393
 30
0.0
 10
400.3892086299907
 20
-248.191501777039
 30
0.0
 10
400.2348900568832
 20
-248.1021669627144
 30
0.0
  0
SPLINE
  5
13C
330
1F
100
AcDbEntity
  8
0
  6
Continuous
 62
     7
370
    25
100
AcDbSpline
210
0.0
220
0.0
230
1.0
 70
     8
 71
     3
 72
    58
 73
    54
 74
     0
 42
0.00000001
 43
0.00000001
 40
0.0
 40
0.0
 40
0.0
 40
0.0
 40
0.0165803135856841
 40
0.0366452459411185
 40
0.0566613106100481
 40
0.0766329410454184
 40
0.0965672082610078
 40
0.1164720995269319
 40
0.1363553330980135
 40
0.1562236939541459
 40
0.1760827636199326
 40
0.1959369012012224
 40
0.2157893598970487
 40
0.2356418879306625
 40
0.2554961761151021
 40
0.2753533914030243
 40
0.2952142154346735
 40
0.3150789689777813
 40
0.3349477101076986
 40
0.3548203094291247
 40
0.3746965063722098
 40
0.394575950462685
 40
0.4144582309755312
 40
0.4343428977888274
 40
0.4542294756854928
 40
0.4741174738596901
 40
0.4940063919880645
 40
0.5138957239216134
 40
0.533784926718642
 40
0.5536733511194816
 40
0.573560483978111
 40
0.5934458128158575
 40
0.6133288285420335
 40
0.6332090301232339
 40
0.653085932105921
 40
0.6729590761954869
 40
0.6928280484488026
 40
0.7126925040879433
 40
0.7325522024864269
 40
0.7524070554860236
 40
0.7722571927900012
 40
0.7921030485714186
 40
0.8119454732942515
 40
0.8317858734739846
 40
0.8516259244443857
 40
0.8714680115527411
 40
0.8913158939348257
 40
0.9111745328968022
 40
0.9310501729443503
 40
0.9509502468604417
 40
0.9708829789449742
 40
0.9908565472768046
 40
1.0
 40
1.0
 40
1.0
 40
1.0
 10
379.04836418743
 20
-221.8806200827206
 30
0.0
 10
378.6655284838545
 20
-221.4273235554973
 30
0.0
 10
377.8193980147253
 20
-220.4254629671248
 30
0.0
 10
376.6509095417104
 20
-218.6860519265212
 30
0.0
 10
375.5211710173762
 20
-216.7076042235466
 30
0.0
 10
374.5214900433505
 20
-214.5828404108732
 30
0.0
 10
373.6503642106973
 20
-212.32377658779
 30
0.0
 10
372.9112450403412
 20
-209.9353176231326
 30
0.0
 10
372.3059295934676
 20
-207.4246541198367
 30
0.0
 10
371.8363195889776
 20
-204.7988205542302
 30
0.0
 10
371.5039163516545
 20
-202.0653870091918
 30
0.0
 10
371.309910255407
 20
-199.232282525832
 30
0.0
 10
371.2551127120557
 20
-196.3078540539232
 30
0.0
 10
371.33993084899
 20
-193.3007941135436
 30
0.0
 10
371.5643466778399
 20
-190.2201030112432
 30
0.0
 10
371.9279126070283
 20
-187.0750181136418
 30
0.0
 10
372.4297453463896
 20
-183.875010380933
 30
0.0
 10
373.0685231064962
 20
-180.6297500695468
 30
0.0
 10
373.8424871357641
 20
-177.3490676609032
 30
0.0
 10
374.7494465306906
 20
-174.0429160269575
 30
0.0
 10
375.7867855305357
 20
-170.7213339510564
 30
0.0
 10
376.9514727314106
 20
-167.3944109266091
 30
0.0
 10
378.2400718107733
 20
-164.072253097923
 30
0.0
 10
379.6487534797404
 20
-160.7649501904319
 30
0.0
 10
381.1733084705195
 20
-157.4825432908164
 30
0.0
 10
382.8091614293845
 20
-154.2349933615287
 30
0.0
 10
384.5513856282246
 20
-151.0321504010101
 30
0.0
 10
386.3947174127226
 20
-147.8837249329029
 30
0.0
 10
388.3335687251018
 20
-144.7992634625548
 30
0.0
 10
390.3620475663702
 20
-141.7881113418601
 30
0.0
 10
392.4739770685479
 20
-138.8593821104344
 30
0.0
 10
394.662918209409
 20
-136.021924566067
 30
0.0
 10
396.9221843656409
 20
-133.2843020438048
 30
0.0
 10
399.2448610656193
 20
-130.6547650529366
 30
0.0
 10
401.6238265611055
 20
-128.1412243410243
 30
0.0
 10
404.0517733228682
 20
-125.7512243852185
 30
0.0
 10
406.5212306202396
 20
-123.4919173209675
 30
0.0
 10
409.0245884130204
 20
-121.3700373466131
 30
0.0
 10
411.5541228652647
 20
-119.3918757038391
 30
0.0
 10
414.1020238966754
 20
-117.5632564101837
 30
0.0
 10
416.6604252502189
 20
-115.8895131573456
 30
0.0
 10
419.2214377723081
 20
-114.3754677382307
 30
0.0
 10
421.7771861130259
 20
-113.0254118192782
 30
0.0
 10
424.319831440331
 20
-111.8430992785975
 30
0.0
 10
426.8416059327366
 20
-110.831741381887
 30
0.0
 10
429.3348892052965
 20
-109.9939643495122
 30
0.0
 10
431.7922310357978
 20
-109.3319168600976
 30
0.0
 10
434.2065896730806
 20
-108.8469069835264
 30
0.0
 10
436.5706928271733
 20
-108.5409070375125
 30
0.0
 10
438.8795787009881
 20
-108.4111685454645
 30
0.0
 10
441.1212098286817
 20
-108.470657740072
 30
0.0
 10
442.9139785235146
 20
-108.635397819944
 30
0.0
 10
443.9273887677597
 20
-108.8456837763482
 30
0.0
 10
444.2456242301014
 20
-108.9117186807122
 30
0.0
  0
SPLINE
  5
13D
330
1F
100
AcDbEntity
  8
0
  6
Continuous
 62
     7
370
    25
100
AcDbSpline
210
0.0
220
0.0
230
1.0
 70
     8
 71
     3
 72
    13
 73
     9
 74
     0
 42
0.00000001
 43
0.00000001
 40
0.0
 40
0.0
 40
0.0
 40
0.0
 40
0.130359501941514
 40
0.3268338148584498
 40
0.4954964216977053
 40
0.674713850154527
 40
0.8496282101272878
 40
1.0
 40
1.0
 40
1.0
 40
1.0
 10
457.8535637638631
 20
-70.55626596987194
 30
0.0
 10
457.99402190118
 20
-70.63463551503355
 30
0.0
 10
458.3461747413141
 20
-70.83112151745303
 30
0.0
 10
458.7811403352897
 20
-71.3184824013666
 30
0.0
 10
459.1873611315201
 20
-72.00221885416444
 30
0.0
 10
459.4763406585957
 20
-72.82150259689914
 30
0.0
 10
459.6523033173928
 20
-73.74272543959718
 30
0.0
 10
459.6729773400511
 20
-74.41922453791507
 30
0.0
 10
459.6825344324525
 20
-74.73195343925215
 30
0.0
  0
SPLINE
  5
13E
330
1F
100
AcDbEntity
  8
0
  6
Continuous
 62
     7
370
    25
100
AcDbSpline
210
0.0
220
0.0
230
1.0
 70
     8
 71
     3
 72
    25
 73
    21
 74
     0
 42
0.00000001
 43
0.00000001
 40
0.0
 40
0.0
 40
0.0
 40
0.0
 40
0.029883218289188
 40
0.0872265873275024
 40
0.1447549071631342
 40
0.2024588056115376
 40
0.2603149865525635
 40
0.3182758350333196
 40
0.3762847282035217
 40
0.4342772141427449
 40
0.4921770275869545
 40
0.5499234883147299
 40
0.6074602569846815
 40
0.6647465328167875
 40
0.7217833167680446
 40
0.7786682698894654
 40
0.8356000204518086
 40
0.8930795340969426
 40
0.9521018185559985
 40
1.0
 40
1.0
 40
1.0
 40
1.0
 10
459.6825344324525
 20
-74.73195343925212
 30
0.0
 10
459.6789861192976
 20
-74.92615093085716
 30
0.0
 10
459.6686288932356
 20
-75.49299698794314
 30
0.0
 10
459.5514816530136
 20
-76.49793160514952
 30
0.0
 10
459.2864224902578
 20
-77.7457931987321
 30
0.0
 10
458.8902833482534
 20
-79.02731711776362
 30
0.0
 10
458.3717079086034
 20
-80.31383983382116
 30
0.0
 10
457.739692211068
 20
-81.57883706791425
 30
0.0
 10
457.006998453631
 20
-82.79558510760091
 30
0.0
 10
456.1889459875783
 20
-83.93856093244256
 30
0.0
 10
455.3033129927666
 20
-84.98400187030205
 30
0.0
 10
454.3699012165852
 20
-85.91061686818603
 30
0.0
 10
453.4101076421116
 20
-86.7002695654875
 30
0.0
 10
452.4465466773477
 20
-87.33857293307891
 30
0.0
 10
451.5022072350084
 20
-87.81589220553694
 30
0.0
 10
450.6000442514971
 20
-88.12731152491496
 30
0.0
 10
449.7594550546444
 20
-88.27576517457686
 30
0.0
 10
448.9975033267746
 20
-88.26221051937533
 30
0.0
 10
448.3586854605718
 20
-88.12648715024594
 30
0.0
 10
448.0142086299964
 20
-87.92706997654561
 30
0.0
 10
447.8598900568888
 20
-87.83773516222102
 30
0.0
  0
SPLINE
  5
13F
330
1F
100
AcDbEntity
  8
0
  6
Continuous
 62
     7
370
    25
100
AcDbSpline
210
0.0
220
0.0
230
1.0
 70
     8
 71
     3
 72
    13
 73
     9
 74
     0
 42
0.00000001
 43
0.00000001
 40
0.0
 40
0.0
 40
0.0
 40
0.0
 40
0.1303595019415276
 40
0.3268338148584714
 40
0.4954964216977218
 40
0.6747138501545307
 40
0.8496282101272921
 40
1.0
 40
1.0
 40
1.0
 40
1.0
 10
362.6035637638576
 20
-235.5341049066173
 30
0.0
 10
362.7440219011744
 20
-235.6124744517789
 30
0.0
 10
363.0961747413086
 20
-235.8089604541984
 30
0.0
 10
363.5311403352842
 20
-236.296321338112
 30
0.0
 10
363.9373611315145
 20
-236.9800577909099
 30
0.0
 10
364.2263406585902
 20
-237.7993415336445
 30
0.0
 10
364.4023033173872
 20
-238.7205643763425
 30
0.0
 10
364.4229773400455
 20
-239.3970634746604
 30
0.0
 10
364.4325344324469
 20
-239.7097923759975
 30
0.0
  0
SPLINE
  5
140
330
1F
100
AcDbEntity
  8
0
  6
Continuous
 62
     7
370
    25
100
AcDbSpline
210
0.0
220
0.0
230
1.0
 70
     8
 71
     3
 72
    25
 73
    21
 74
     0
 42
0.00000001
 43
0.00000001
 40
0.0
 40
0.0
 40
0.0
 40
0.0
 40
0.029883218289188
 40
0.0872265873274947
 40
0.1447549071631322
 40
0.2024588056115348
 40
0.2603149865525584
 40
0.3182758350333141
 40
0.3762847282035187
 40
0.4342772141427451
 40
0.492177027586954
 40
0.5499234883147365
 40
0.6074602569846879
 40
0.6647465328167954
 40
0.7217833167680543
 40
0.7786682698894688
 40
0.8356000204518111
 40
0.8930795340969437
 40
0.9521018185559967
 40
0.9999999999999999
 40
0.9999999999999999
 40
0.9999999999999999
 40
0.9999999999999999
 10
364.4325344324469
 20
-239.7097923759975
 30
0.0
 10
364.4289861192919
 20
-239.9039898676025
 30
0.0
 10
364.41862889323
 20
-240.4708359246884
 30
0.0
 10
364.301481653008
 20
-241.4757705418948
 30
0.0
 10
364.0364224902523
 20
-242.7236321354773
 30
0.0
 10
363.6402833482477
 20
-244.0051560545089
 30
0.0
 10
363.1217079085978
 20
-245.2916787705664
 30
0.0
 10
362.4896922110624
 20
-246.5566760046595
 30
0.0
 10
361.7569984536253
 20
-247.7734240443462
 30
0.0
 10
360.9389459875727
 20
-248.9163998691879
 30
0.0
 10
360.0533129927609
 20
-249.9618408070474
 30
0.0
 10
359.1199012165795
 20
-250.8884558049314
 30
0.0
 10
358.1601076421059
 20
-251.6781085022329
 30
0.0
 10
357.1965466773419
 20
-252.3164118698243
 30
0.0
 10
356.2522072350027
 20
-252.7937311422823
 30
0.0
 10
355.3500442514914
 20
-253.1051504616603
 30
0.0
 10
354.5094550546387
 20
-253.2536041113223
 30
0.0
 10
353.747503326769
 20
-253.2400494561206
 30
0.0
 10
353.1086854605662
 20
-253.1043260869913
 30
0.0
 10
352.7642086299908
 20
-252.9049089132909
 30
0.0
 10
352.6098900568833
 20
-252.8155740989664
 30
0.0
  0
SPLINE
  5
141
330
1F
100
AcDbEntity
  8
0
  6
Continuous
 62
     7
370
    25
100
AcDbSpline
210
0.0
220
0.0
230
1.0
 70
     8
 71
     3
 72
    13
 73
     9
 74
     0
 42
0.00000001
 43
0.00000001
 40
0.0
 40
0.0
 40
0.0
 40
0.0
 40
0.1303595019415225
 40
0.326833814858471
 40
0.495496421697715
 40
0.674713850154525
 40
0.8496282101272833
 40
1.0
 40
1.0
 40
1.0
 40
1.0
 10
410.2285637638632
 20
-75.26967310612389
 30
0.0
 10
410.3690219011801
 20
-75.34804265128548
 30
0.0
 10
410.7211747413143
 20
-75.54452865370494
 30
0.0
 10
411.1561403352899
 20
-76.03188953761861
 30
0.0
 10
411.5623611315202
 20
-76.71562599041643
 30
0.0
 10
411.8513406585959
 20
-77.53490973315112
 30
0.0
 10
412.0273033173929
 20
-78.45613257584904
 30
0.0
 10
412.0479773400511
 20
-79.13263167416703
 30
0.0
 10
412.0575344324527
 20
-79.44536057550408
 30
0.0
  0
SPLINE
  5
142
330
1F
100
AcDbEntity
  8
0
  6
Continuous
 62
     7
370
    25
100
AcDbSpline
210
0.0
220
0.0
230
1.0
 70
     8
 71
     3
 72
    25
 73
    21
 74
     0
 42
0.00000001
 43
0.00000001
 40
0.0
 40
0.0
 40
0.0
 40
0.0
 40
0.029883218289188
 40
0.0872265873274982
 40
0.1447549071631347
 40
0.2024588056115367
 40
0.260314986552562
 40
0.3182758350333169
 40
0.3762847282035217
 40
0.4342772141427466
 40
0.4921770275869544
 40
0.5499234883147314
 40
0.6074602569846816
 40
0.6647465328167911
 40
0.7217833167680476
 40
0.7786682698894685
 40
0.835600020451809
 40
0.8930795340969444
 40
0.9521018185559986
 40
1.0
 40
1.0
 40
1.0
 40
1.0
 10
412.0575344324527
 20
-79.44536057550408
 30
0.0
 10
412.0539861192977
 20
-79.63955806710909
 30
0.0
 10
412.0436288932357
 20
-80.20640412419505
 30
0.0
 10
411.9264816530138
 20
-81.21133874140146
 30
0.0
 10
411.661422490258
 20
-82.459200334984
 30
0.0
 10
411.2652833482535
 20
-83.74072425401555
 30
0.0
 10
410.7467079086035
 20
-85.02724697007302
 30
0.0
 10
410.1146922110682
 20
-86.29224420416621
 30
0.0
 10
409.3819984536311
 20
-87.50899224385284
 30
0.0
 10
408.5639459875784
 20
-88.65196806869449
 30
0.0
 10
407.6783129927667
 20
-89.69740900655397
 30
0.0
 10
406.7449012165853
 20
-90.62402400443797
 30
0.0
 10
405.7851076421117
 20
-91.41367670173943
 30
0.0
 10
404.8215466773477
 20
-92.0519800693309
 30
0.0
 10
403.8772072350085
 20
-92.52929934178891
 30
0.0
 10
402.9750442514971
 20
-92.84071866116685
 30
0.0
 10
402.1344550546444
 20
-92.98917231082886
 30
0.0
 10
401.3725033267747
 20
-92.9756176556272
 30
0.0
 10
400.7336854605718
 20
-92.83989428649787
 30
0.0
 10
400.3892086299965
 20
-92.64047711279756
 30
0.0
 10
400.234890056889
 20
-92.55114229847295
 30
0.0
  0
SPLINE
  5
143
330
1F
100
AcDbEntity
  8
0
  6
Continuous
 62
     7
370
    25
100
AcDbSpline
210
0.0
220
0.0
230
1.0
 70
     8
 71
     3
 72
    13
 73
     9
 74
     0
 42
0.00000001
 43
0.00000001
 40
0.0
 40
0.0
 40
0.0
 40
0.0
 40
0.1303595019415597
 40
0.3268338148585078
 40
0.4954964216977597
 40
0.6747138501545682
 40
0.8496282101273308
 40
1.0
 40
1.0
 40
1.0
 40
1.0
 10
342.8766428558407
 20
-191.9266217637986
 30
0.0
 10
343.0171009931575
 20
-192.0049913089602
 30
0.0
 10
343.3692538332917
 20
-192.2014773113797
 30
0.0
 10
343.8042194272674
 20
-192.6888381952934
 30
0.0
 10
344.2104402234977
 20
-193.3725746480913
 30
0.0
 10
344.4994197505733
 20
-194.191858390826
 30
0.0
 10
344.6753824093702
 20
-195.113081233524
 30
0.0
 10
344.6960564320286
 20
-195.7895803318418
 30
0.0
 10
344.70561352443
 20
-196.1023092331787
 30
0.0
  0
SPLINE
  5
144
330
1F
100
AcDbEntity
  8
0
  6
Continuous
 62
     7
370
    25
100
AcDbSpline
210
0.0
220
0.0
230
1.0
 70
     8
 71
     3
 72
    25
 73
    21
 74
     0
 42
0.00000001
 43
0.00000001
 40
0.0
 40
0.0
 40
0.0
 40
0.0
 40
0.0298832182891882
 40
0.0872265873275022
 40
0.1447549071631342
 40
0.2024588056115368
 40
0.2603149865525613
 40
0.3182758350333161
 40
0.3762847282035207
 40
0.4342772141427449
 40
0.4921770275869541
 40
0.5499234883147325
 40
0.6074602569846833
 40
0.6647465328167915
 40
0.7217833167680499
 40
0.7786682698894685
 40
0.8356000204518099
 40
0.8930795340969477
 40
0.9521018185560006
 40
1.0
 40
1.0
 40
1.0
 40
1.0
 10
344.70561352443
 20
-196.1023092331787
 30
0.0
 10
344.7020652112751
 20
-196.2965067247838
 30
0.0
 10
344.6917079852131
 20
-196.8633527818698
 30
0.0
 10
344.5745607449912
 20
-197.8682873990762
 30
0.0
 10
344.3095015822353
 20
-199.1161489926587
 30
0.0
 10
343.9133624402309
 20
-200.3976729116902
 30
0.0
 10
343.3947870005809
 20
-201.6841956277477
 30
0.0
 10
342.7627713030456
 20
-202.9491928618409
 30
0.0
 10
342.0300775456084
 20
-204.1659409015275
 30
0.0
 10
341.2120250795558
 20
-205.3089167263692
 30
0.0
 10
340.326392084744
 20
-206.3543576642287
 30
0.0
 10
339.3929803085627
 20
-207.2809726621126
 30
0.0
 10
338.4331867340891
 20
-208.0706253594141
 30
0.0
 10
337.469625769325
 20
-208.7089287270056
 30
0.0
 10
336.5252863269858
 20
-209.1862479994635
 30
0.0
 10
335.6231233434746
 20
-209.4976673188416
 30
0.0
 10
334.7825341466218
 20
-209.6461209685035
 30
0.0
 10
334.020582418752
 20
-209.6325663133019
 30
0.0
 10
333.3817645525493
 20
-209.4968429441725
 30
0.0
 10
333.0372877219738
 20
-209.2974257704722
 30
0.0
 10
332.8829691488663
 20
-209.2080909561476
 30
0.0
  0
SPLINE
  5
145
330
1F
100
AcDbEntity
  8
0
  6
Continuous
 62
     7
370
    25
100
AcDbSpline
210
0.0
220
0.0
230
1.0
 70
     8
 71
     3
 72
    13
 73
     9
 74
     0
 42
0.00000001
 43
0.00000001
 40
0.0
 40
0.0
 40
0.0
 40
0.0
 40
0.1303595019415698
 40
0.3268338148585166
 40
0.4954964216977717
 40
0.6747138501545953
 40
0.8496282101273538
 40
1.0
 40
1.0
 40
1.0
 40
1.0
 10
362.6035637638616
 20
-125.5429205460163
 30
0.0
 10
362.7440219011785
 20
-125.6212900911779
 30
0.0
 10
363.0961747413128
 20
-125.8177760935975
 30
0.0
 10
363.5311403352884
 20
-126.3051369775112
 30
0.0
 10
363.9373611315187
 20
-126.9888734303091
 30
0.0
 10
364.2263406585943
 20
-127.8081571730438
 30
0.0
 10
364.4023033173913
 20
-128.7293800157418
 30
0.0
 10
364.4229773400495
 20
-129.4058791140595
 30
0.0
 10
364.4325344324511
 20
-129.7186080153965
 30
0.0
  0
SPLINE
  5
146
330
1F
100
AcDbEntity
  8
0
  6
Continuous
 62
     7
370
    25
100
AcDbSpline
210
0.0
220
0.0
230
1.0
 70
     8
 71
     3
 72
    25
 73
    21
 74
     0
 42
0.00000001
 43
0.00000001
 40
0.0
 40
0.0
 40
0.0
 40
0.0
 40
0.029883218289188
 40
0.0872265873274948
 40
0.1447549071631323
 40
0.2024588056115349
 40
0.2603149865525585
 40
0.3182758350333139
 40
0.3762847282035189
 40
0.4342772141427425
 40
0.4921770275869534
 40
0.5499234883147288
 40
0.6074602569846809
 40
0.6647465328167902
 40
0.7217833167680467
 40
0.7786682698894645
 40
0.8356000204518081
 40
0.8930795340969446
 40
0.9521018185559973
 40
1.0
 40
1.0
 40
1.0
 40
1.0
 10
364.4325344324511
 20
-129.7186080153965
 30
0.0
 10
364.428986119296
 20
-129.9128055070015
 30
0.0
 10
364.4186288932341
 20
-130.4796515640874
 30
0.0
 10
364.3014816530121
 20
-131.4845861812938
 30
0.0
 10
364.0364224902563
 20
-132.7324477748763
 30
0.0
 10
363.6402833482519
 20
-134.0139716939078
 30
0.0
 10
363.1217079086019
 20
-135.3004944099654
 30
0.0
 10
362.4896922110666
 20
-136.5654916440585
 30
0.0
 10
361.7569984536295
 20
-137.7822396837451
 30
0.0
 10
360.9389459875768
 20
-138.9252155085868
 30
0.0
 10
360.0533129927651
 20
-139.9706564464463
 30
0.0
 10
359.1199012165837
 20
-140.8972714443303
 30
0.0
 10
358.1601076421101
 20
-141.6869241416318
 30
0.0
 10
357.1965466773461
 20
-142.3252275092233
 30
0.0
 10
356.2522072350068
 20
-142.8025467816813
 30
0.0
 10
355.3500442514956
 20
-143.1139661010592
 30
0.0
 10
354.5094550546428
 20
-143.2624197507212
 30
0.0
 10
353.7475033267731
 20
-143.2488650955196
 30
0.0
 10
353.1086854605703
 20
-143.1131417263902
 30
0.0
 10
352.7642086299949
 20
-142.9137245526899
 30
0.0
 10
352.6098900568873
 20
-142.8243897383653
 30
0.0
  0
LWPOLYLINE
  5
147
330
1F
100
AcDbEntity
  8
0
  6
Continuous
 62
     7
370
    25
100
AcDbPolyline
 90
      143
 70
   128
 43
0.0
 10
484.8288727229
 20
-114.9717531208
 10
484.750319672
 20
-110.9176700536
 10
484.5148142905
 20
-106.9622184666
 10
484.1228175913
 20
-103.1131413418
 10
483.5750969263
 20
-99.3779734285
 10
482.8727244845
 20
-95.7640264934
 10
482.0170751928
 20
-92.2783750073
 10
481.009824025
 20
-88.9278422965
 10
479.8529427226
 20
-85.7189871864
 10
478.5486959349
 20
-82.6580911613
 10
477.0996367864
 20
-79.7511460691
 10
475.5086018783
 20
-77.0038423912
 10
473.7787057363
 20
-74.4215581036
 10
471.9133347131
 20
-72.0093481492
 10
469.9161403603
 20
-69.771934542
 10
467.7910322796
 20
-67.7136971244
 10
465.5421704698
 20
-65.8386649928
 10
463.1739571835
 20
-64.1505086105
 10
460.6910283094
 20
-62.652532623
 10
458.0982442974
 20
-61.3476693887
 10
455.400680644
 20
-60.2384732386
 10
452.6036179567
 20
-59.3271154761
 10
449.7125316171
 20
-58.6153801271
 10
446.7330810623
 20
-58.1046604467
 10
443.6710987069
 20
-57.7959561929
 10
440.5325785251
 20
-57.6898716686
 10
437.3236643174
 20
-57.7866145393
 10
434.0506376842
 20
-58.0859954263
 10
430.7199057288
 20
-58.5874282774
 10
427.3379885154
 20
-59.2899315143
 10
423.9115063057
 20
-60.1921299539
 10
420.4471665997
 20
-61.2922575004
 10
416.9517510049
 20
-62.5881606024
 10
413.4321019615
 20
-64.0773024689
 10
409.8951093479
 20
-65.7567680346
 10
406.3476969931
 20
-67.6232696668
 10
402.7968091234
 20
-69.6731536009
 10
399.2493967686
 20
-71.902407093
 10
395.7124041549
 20
-74.3066662745
 10
392.1927551115
 20
-76.8812246952
 10
388.6973395167
 20
-79.6210425362
 10
385.2329998107
 20
-82.5207564753
 10
381.806517601
 20
-85.5746901863
 10
378.4246003876
 20
-88.7768654506
 10
375.0938684322
 20
-92.1210138597
 10
371.820841799
 20
-95.6005890861
 10
368.6119275913
 20
-99.2087796978
 10
365.4734074095
 20
-102.9385224924
 10
362.4114250541
 20
-106.782516323
 10
359.4319744994
 20
-110.7332363914
 10
356.5408881597
 20
-114.7829489773
 10
353.7438254724
 20
-118.9237265784
 10
351.046261819
 20
-123.1474634279
 10
348.453477807
 20
-127.4458913626
 10
345.970548933
 20
-131.8105960081
 10
343.6023356466
 20
-136.2330332499
 10
341.3534738368
 20
-140.7045459595
 10
339.2283657561
 20
-145.2163809409
 10
337.2311714033
 20
-149.759706065
 10
335.3658003802
 20
-154.3256275598
 10
333.6359042381
 20
-158.9052074193
 10
332.04486933
 20
-163.489480901
 10
330.5958101815
 20
-168.0694740743
 10
329.2915633938
 20
-172.6362213875
 10
328.1346820914
 20
-177.1807832182
 10
327.1274309236
 20
-181.6942633732
 10
326.271781632
 20
-186.1678265032
 10
325.5694091901
 20
-190.5927153983
 10
325.0216885252
 20
-194.9602681306
 10
324.629691826
 20
-199.2619350106
 10
324.3941864445
 20
-203.4892953234
 10
324.3156333935
 20
-207.6340738127
 10
324.3941864445
 20
-211.6881568798
 10
324.629691826
 20
-215.6436084669
 10
325.0216885252
 20
-219.4926855917
 10
325.5694091901
 20
-223.2278535049
 10
326.271781632
 20
-226.84180044
 10
327.1274309236
 20
-230.3274519262
 10
328.1346820914
 20
-233.6779846369
 10
329.2915633938
 20
-236.8868397471
 10
330.5958101815
 20
-239.9477357722
 10
332.04486933
 20
-242.8546808644
 10
333.6359042381
 20
-245.6019845423
 10
335.3658003802
 20
-248.1842688298
 10
337.2311714033
 20
-250.5964787843
 10
339.2283657561
 20
-252.8338923915
 10
341.3534738368
 20
-254.892129809
 10
343.6023356466
 20
-256.7671619407
 10
345.970548933
 20
-258.455318323
 10
348.453477807
 20
-259.9532943104
 10
351.046261819
 20
-261.2581575448
 10
353.7438254724
 20
-262.3673536949
 10
356.5408881597
 20
-263.2787114573
 10
359.4319744994
 20
-263.9904468064
 10
362.4114250541
 20
-264.5011664867
 10
365.4734074095
 20
-264.8098707406
 10
368.6119275914
 20
-264.9159552649
 10
371.820841799
 20
-264.8192123942
 10
375.0938684322
 20
-264.5198315072
 10
378.4246003876
 20
-264.0183986561
 10
381.806517601
 20
-263.3158954192
 10
385.2329998107
 20
-262.4136969796
 10
388.6973395167
 20
-261.3135694331
 10
392.1927551115
 20
-260.017666331
 10
395.7124041549
 20
-258.5285244646
 10
399.2493967686
 20
-256.8490588989
 10
402.7968091234
 20
-254.9825572667
 10
406.3476969931
 20
-252.9326733325
 10
409.8951093479
 20
-250.7034198405
 10
413.4321019615
 20
-248.299160659
 10
416.9517510049
 20
-245.7246022382
 10
420.4471665997
 20
-242.9847843973
 10
423.9115063057
 20
-240.0850704582
 10
427.3379885154
 20
-237.0311367472
 10
430.7199057288
 20
-233.8289614829
 10
434.0506376842
 20
-230.4848130738
 10
437.3236643174
 20
-227.0052378474
 10
440.5325785251
 20
-223.3970472356
 10
443.6710987069
 20
-219.6673044411
 10
446.7330810623
 20
-215.8233106105
 10
449.7125316171
 20
-211.8725905421
 10
452.6036179567
 20
-207.8228779561
 10
455.400680644
 20
-203.6821003551
 10
458.0982442974
 20
-199.4583635056
 10
460.6910283094
 20
-195.1599355708
 10
463.1739571835
 20
-190.7952309254
 10
465.5421704698
 20
-186.3727936836
 10
467.7910322796
 20
-181.9012809739
 10
469.9161403603
 20
-177.3894459926
 10
471.9133347131
 20
-172.8461208684
 10
473.7787057363
 20
-168.2801993737
 10
475.5086018783
 20
-163.7006195142
 10
477.0996367864
 20
-159.1163460324
 10
478.5486959349
 20
-154.5363528591
 10
479.8529427226
 20
-149.969605546
 10
481.009824025
 20
-145.4250437153
 10
482.0170751928
 20
-140.9115635603
 10
482.8727244845
 20
-136.4380004303
 10
483.5750969263
 20
-132.0131115352
 10
484.1228175913
 20
-127.6455588029
 10
484.5148142905
 20
-123.3438919228
 10
484.750319672
 20
-119.11653161
 10
484.8288727229
 20
-114.9717531208
  0
ARC
  5
148
330
1F
100
AcDbEntity
  8
0
  6
Continuous
 62
     7
370
    25
100
AcDbCircle
 10
367.4055656782
 20
-227.3215812722
 30
0.0
 40
38.73903452813178
100
AcDbArc
 50
224.8623437874
 51
255.7742157955
  0
ARC
  5
149
330
1F
100
AcDbEntity
  8
0
  6
Continuous
 62
     7
370
    25
100
AcDbCircle
 10
443.1576288813
 20
-96.098919455
 30
0.0
 40
38.73537611317224
100
AcDbArc
 50
44.4110161891
 51
75.2813287597
  0
ARC
  5
14A
330
1F
100
AcDbEntity
  8
0
  6
Continuous
 62
     7
370
    25
100
AcDbCircle
 10
455.6876848389
 20
-103.6821458598
 30
0.0
 40
39.04199630975251
100
AcDbArc
 50
44.1413097554
 51
59.9255017685
  0
ARC
  5
14B
330
1F
100
AcDbEntity
  8
0
  6
Continuous
 62
     7
370
    25
100
AcDbCircle
 10
380.2315272573
 20
-234.3810786822
 30
0.0
 40
39.04140614610563
100
AcDbArc
 50
240.0865736093
 51
254.8466216885
  0
LWPOLYLINE
  5
14C
330
1F
100
AcDbEntity
  8
0
  6
Continuous
 62
     7
370
    25
100
AcDbPolyline
 90
       45
 70
   128
 43
0.0
 10
344.9985067432
 20
-195.6941051773
 10
344.9193361411
 20
-197.0180740025
 10
344.6834360198
 20
-198.406499072
 10
344.2956086255
 20
-199.8311160553
 10
343.7637490056
 20
-201.2629238589
 10
343.0986842881
 20
-202.6727750048
 10
342.313953273
 20
-204.0319689894
 10
341.4255308205
 20
-205.3128365427
 10
340.4515026499
 20
-206.4893028952
 10
339.4116971659
 20
-207.5374185845
 10
338.3272818095
 20
-208.4358469976
 10
337.2203321502
 20
-209.166298723
 10
336.1133824909
 20
-209.71390387
 10
335.0289671345
 20
-210.0675147769
 10
333.9891616505
 20
-210.2199329455
 10
333.0151334799
 20
-210.1680555812
 10
332.1267110274
 20
-209.9129387578
 10
331.3419800122
 20
-209.4597759179
 10
330.6769152948
 20
-208.8177921502
 10
330.1450556749
 20
-208.0000563929
 10
329.7572282806
 20
-207.0232153879
 10
329.5213281593
 20
-205.907154801
 10
329.4421575571
 20
-204.6745944073
 10
329.5213281593
 20
-203.3506255821
 10
329.7572282806
 20
-201.9622005125
 10
330.1450556749
 20
-200.5375835292
 10
330.6769152948
 20
-199.1057757257
 10
331.3419800122
 20
-197.6959245798
 10
332.1267110274
 20
-196.3367305952
 10
333.0151334799
 20
-195.0558630418
 10
333.9891616505
 20
-193.8793966894
 10
335.0289671345
 20
-192.8312810001
 10
336.1133824909
 20
-191.932852587
 10
337.2203321502
 20
-191.2024008615
 10
338.3272818095
 20
-190.6547957146
 10
339.4116971659
 20
-190.3011848076
 10
340.4515026499
 20
-190.1487666391
 10
341.4255308205
 20
-190.2006440034
 10
342.313953273
 20
-190.4557608268
 10
343.0986842881
 20
-190.9089236667
 10
343.7637490056
 20
-191.5509074344
 10
344.2956086255
 20
-192.3686431917
 10
344.6834360198
 20
-193.3454841967
 10
344.9193361411
 20
-194.4615447836
 10
344.9985067432
 20
-195.6941051773
  0
LWPOLYLINE
  5
14D
330
1F
100
AcDbEntity
  8
0
  6
Continuous
 62
     7
370
    25
100
AcDbPolyline
 90
       45
 70
   128
 43
0.0
 10
459.9754276513
 20
-184.3149337439
 10
459.8962570491
 20
-185.6389025692
 10
459.6603569278
 20
-187.0273276387
 10
459.2725295335
 20
-188.451944622
 10
458.7406699136
 20
-189.8837524256
 10
458.0756051962
 20
-191.2936035715
 10
457.290874181
 20
-192.6527975561
 10
456.4024517285
 20
-193.9336651094
 10
455.4284235579
 20
-195.1101314619
 10
454.3886180739
 20
-196.1582471511
 10
453.3042027175
 20
-197.0566755643
 10
452.1972530582
 20
-197.7871272897
 10
451.0903033989
 20
-198.3347324367
 10
450.0058880426
 20
-198.6883433436
 10
448.9660825585
 20
-198.8407615121
 10
447.9920543879
 20
-198.7888841479
 10
447.1036319354
 20
-198.5337673244
 10
446.3189009203
 20
-198.0806044846
 10
445.6538362028
 20
-197.4386207169
 10
445.1219765829
 20
-196.6208849596
 10
444.7341491886
 20
-195.6440439546
 10
444.4982490673
 20
-194.5279833677
 10
444.4190784652
 20
-193.295422974
 10
444.4982490673
 20
-191.9714541488
 10
444.7341491886
 20
-190.5830290792
 10
445.1219765829
 20
-189.1584120959
 10
445.6538362028
 20
-187.7266042924
 10
446.3189009203
 20
-186.3167531465
 10
447.1036319354
 20
-184.9575591619
 10
447.9920543879
 20
-183.6766916085
 10
448.9660825585
 20
-182.5002252561
 10
450.0058880426
 20
-181.4521095668
 10
451.0903033989
 20
-180.5536811536
 10
452.1972530582
 20
-179.8232294282
 10
453.3042027175
 20
-179.2756242812
 10
454.3886180739
 20
-178.9220133743
 10
455.4284235579
 20
-178.7695952058
 10
456.4024517285
 20
-178.82147257
 10
457.290874181
 20
-179.0765893935
 10
458.0756051962
 20
-179.5297522334
 10
458.7406699136
 20
-180.171736001
 10
459.2725295335
 20
-180.9894717583
 10
459.6603569278
 20
-181.9663127634
 10
459.8962570491
 20
-183.0823733503
 10
459.9754276513
 20
-184.3149337439
  0
LWPOLYLINE
  5
14E
330
1F
100
AcDbEntity
  8
0
  6
Continuous
 62
     7
370
    25
100
AcDbPolyline
 90
       45
 70
   128
 43
0.0
 10
459.9754276513
 20
-74.3237493833
 10
459.8962570491
 20
-75.6477182086
 10
459.6603569278
 20
-77.0361432781
 10
459.2725295335
 20
-78.4607602614
 10
458.7406699136
 20
-79.892568065
 10
458.0756051962
 20
-81.3024192109
 10
457.290874181
 20
-82.6616131955
 10
456.4024517285
 20
-83.9424807488
 10
455.4284235579
 20
-85.1189471013
 10
454.3886180739
 20
-86.1670627905
 10
453.3042027175
 20
-87.0654912037
 10
452.1972530582
 20
-87.7959429291
 10
451.0903033989
 20
-88.3435480761
 10
450.0058880426
 20
-88.697158983
 10
448.9660825585
 20
-88.8495771515
 10
447.9920543879
 20
-88.7976997873
 10
447.1036319355
 20
-88.5425829638
 10
446.3189009203
 20
-88.089420124
 10
445.6538362028
 20
-87.4474363563
 10
445.1219765829
 20
-86.629700599
 10
444.7341491886
 20
-85.652859594
 10
444.4982490673
 20
-84.5367990071
 10
444.4190784652
 20
-83.3042386134
 10
444.4982490673
 20
-81.9802697882
 10
444.7341491886
 20
-80.5918447186
 10
445.1219765829
 20
-79.1672277353
 10
445.6538362028
 20
-77.7354199318
 10
446.3189009203
 20
-76.3255687859
 10
447.1036319355
 20
-74.9663748013
 10
447.9920543879
 20
-73.6855072479
 10
448.9660825585
 20
-72.5090408955
 10
450.0058880426
 20
-71.4609252062
 10
451.0903033989
 20
-70.562496793
 10
452.1972530582
 20
-69.8320450676
 10
453.3042027175
 20
-69.2844399206
 10
454.3886180739
 20
-68.9308290137
 10
455.4284235579
 20
-68.7784108452
 10
456.4024517285
 20
-68.8302882094
 10
457.290874181
 20
-69.0854050329
 10
458.0756051962
 20
-69.5385678728
 10
458.7406699136
 20
-70.1805516404
 10
459.2725295335
 20
-70.9982873977
 10
459.6603569278
 20
-71.9751284028
 10
459.8962570491
 20
-73.0911889897
 10
459.9754276513
 20
-74.3237493833
  0
LWPOLYLINE
  5
14F
330
1F
100
AcDbEntity
  8
0
  6
Continuous
 62
     7
370
    25
100
AcDbPolyline
 90
       45
 70
   128
 43
0.0
 10
412.3504276513
 20
-79.0371565196
 10
412.2712570491
 20
-80.3611253448
 10
412.0353569278
 20
-81.7495504144
 10
411.6475295335
 20
-83.1741673977
 10
411.1156699136
 20
-84.6059752012
 10
410.4506051962
 20
-86.0158263471
 10
409.665874181
 20
-87.3750203317
 10
408.7774517285
 20
-88.6558878851
 10
407.8034235579
 20
-89.8323542375
 10
406.7636180739
 20
-90.8804699268
 10
405.6792027175
 20
-91.77889834
 10
404.5722530582
 20
-92.5093500654
 10
403.4653033989
 20
-93.0569552123
 10
402.3808880426
 20
-93.4105661193
 10
401.3410825585
 20
-93.5629842878
 10
400.3670543879
 20
-93.5111069236
 10
399.4786319355
 20
-93.2559901001
 10
398.6939009203
 20
-92.8028272602
 10
398.0288362028
 20
-92.1608434925
 10
397.4969765829
 20
-91.3431077353
 10
397.1091491886
 20
-90.3662667302
 10
396.8732490673
 20
-89.2502061433
 10
396.7940784652
 20
-88.0176457496
 10
396.8732490673
 20
-86.6936769244
 10
397.1091491886
 20
-85.3052518549
 10
397.4969765829
 20
-83.8806348716
 10
398.0288362028
 20
-82.448827068
 10
398.6939009203
 20
-81.0389759221
 10
399.4786319355
 20
-79.6797819375
 10
400.3670543879
 20
-78.3989143842
 10
401.3410825585
 20
-77.2224480317
 10
402.3808880426
 20
-76.1743323424
 10
403.4653033989
 20
-75.2759039293
 10
404.5722530582
 20
-74.5454522039
 10
405.6792027175
 20
-73.9978470569
 10
406.7636180739
 20
-73.64423615
 10
407.8034235579
 20
-73.4918179814
 10
408.7774517285
 20
-73.5436953457
 10
409.665874181
 20
-73.7988121691
 10
410.4506051962
 20
-74.251975009
 10
411.1156699136
 20
-74.8939587767
 10
411.6475295335
 20
-75.711694534
 10
412.0353569278
 20
-76.688535539
 10
412.2712570491
 20
-77.8045961259
 10
412.3504276513
 20
-79.0371565196
  0
LWPOLYLINE
  5
150
330
1F
100
AcDbEntity
  8
0
  6
Continuous
 62
     7
370
    25
100
AcDbPolyline
 90
      110
 70
   128
 43
0.0
 10
452.3019607883
 20
-133.7491396927
 10
452.2226841438
 20
-136.9702763086
 10
451.9851175591
 20
-140.2722434981
 10
451.5900502068
 20
-143.6440724583
 10
451.0387944607
 20
-147.0745623124
 10
450.333181537
 20
-150.5523173182
 10
449.4755554108
 20
-154.0657847232
 10
448.46876503
 20
-157.6032931421
 10
447.3161548509
 20
-161.1530913277
 10
446.0215537287
 20
-164.7033872073
 10
444.589262198
 20
-168.2423870552
 10
443.0240381872
 20
-171.7583346697
 10
441.3310812133
 20
-175.2395504264
 10
439.5160151088
 20
-178.6744700766
 10
437.584869341
 20
-182.0516831628
 10
435.5440589818
 20
-185.3599709227
 10
433.4003633981
 20
-188.588343557
 10
431.1609037309
 20
-191.7260767366
 10
428.8331192401
 20
-194.7627472273
 10
426.4247425917
 20
-197.6882675151
 10
423.9437741706
 20
-200.492919316
 10
421.3984555045
 20
-203.1673858585
 10
418.7972418861
 20
-205.702782834
 10
416.1487742853
 20
-208.0906879085
 10
413.4618506452
 20
-210.3231687015
 10
410.7453966559
 20
-212.3928091365
 10
408.0084361043
 20
-214.2927340759
 10
405.2600608983
 20
-216.0166321602
 10
402.5094008638
 20
-217.5587767733
 10
399.7655934168
 20
-218.914045066
 10
397.0377532097
 20
-220.0779349732
 10
394.3349418535
 20
-221.0465801697
 10
391.6661378155
 20
-221.8167629136
 10
389.0402065945
 20
-222.3859247353
 10
386.4658712698
 20
-222.7521749364
 10
383.9516835245
 20
-222.9142968705
 10
381.5059952375
 20
-222.8717519851
 10
379.1369307393
 20
-222.6246816097
 10
376.852359824
 20
-222.1739064875
 10
374.6598716062
 20
-221.520924048
 10
372.5667493115
 20
-220.6679034333
 10
370.5799460816
 20
-219.6176782919
 10
368.706061877
 20
-218.3737373663
 10
366.9513215526
 20
-216.9402129031
 10
365.3215541793
 20
-215.3218669263
 10
363.8221736803
 20
-213.5240754186
 10
362.458160847
 20
-211.5528104626
 10
361.2340467928
 20
-209.4146204022
 10
360.1538979014
 20
-207.1166080897
 10
359.221302319
 20
-204.666407291
 10
358.4393580341
 20
-202.0721573267
 10
357.8106625871
 20
-199.3424760342
 10
357.337304441
 20
-196.4864311405
 10
357.020856044
 20
-193.5135101392
 10
356.8623686058
 20
-190.4335887751
 10
356.8623686058
 20
-187.2568982372
 10
357.020856044
 20
-183.9939911719
 10
357.337304441
 20
-180.6557066285
 10
357.8106625871
 20
-177.2531340524
 10
358.4393580341
 20
-173.7975764475
 10
359.221302319
 20
-170.3005128288
 10
360.1538979014
 20
-166.7735600899
 10
361.2340467928
 20
-163.228434413
 10
362.458160847
 20
-159.6769123492
 10
363.8221736803
 20
-156.1307916976
 10
365.3215541793
 20
-152.6018523143
 10
366.9513215526
 20
-149.1018169812
 10
368.706061877
 20
-145.6423124636
 10
370.5799460816
 20
-142.2348308876
 10
372.5667493115
 20
-138.8906915643
 10
374.6598716062
 20
-135.6210033883
 10
376.852359824
 20
-132.4366279348
 10
379.1369307393
 20
-129.348143379
 10
381.5059952375
 20
-126.3658093558
 10
383.9516835245
 20
-123.4995328789
 10
386.4658712698
 20
-120.7588354307
 10
389.0402065945
 20
-118.1528213323
 10
391.6661378155
 20
-115.6901475006
 10
394.3349418535
 20
-113.3789946903
 10
397.0377532097
 20
-111.2270403187
 10
399.7655934168
 20
-109.2414329618
 10
402.5094008638
 20
-107.4287686075
 10
405.2600608983
 20
-105.7950687446
 10
408.0084361043
 20
-104.3457603596
 10
410.7453966559
 20
-103.0856579093
 10
413.4618506452
 20
-102.0189473273
 10
416.1487742853
 20
-101.1491721188
 10
418.7972418861
 20
-100.4792215897
 10
421.3984555045
 20
-100.0113212483
 10
423.9437741706
 20
-99.7470254123
 10
426.4247425917
 20
-99.687212046
 10
428.8331192401
 20
-99.8320798435
 10
431.1609037309
 20
-100.1811475683
 10
433.4003633981
 20
-100.7332556527
 10
435.5440589818
 20
-101.4865700492
 10
437.584869341
 20
-102.438588323
 10
439.5160151088
 20
-103.5861479651
 10
441.3310812133
 20
-104.925436898
 10
443.0240381872
 20
-106.4520061383
 10
444.589262198
 20
-108.1607845767
 10
446.0215537287
 20
-110.0460958229
 10
447.3161548509
 20
-112.1016770627
 10
448.46876503
 20
-114.3206998619
 10
449.4755554108
 20
-116.6957928498
 10
450.333181537
 20
-119.2190662065
 10
451.0387944607
 20
-121.8821378716
 10
451.5900502068
 20
-124.6761613888
 10
451.9851175591
 20
-127.591855293
 10
452.2226841438
 20
-130.6195339423
 10
452.3019607883
 20
-133.7491396927
  0
LWPOLYLINE
  5
151
330
1F
100
AcDbEntity
  8
0
  6
Continuous
 62
     7
370
    25
100
AcDbPolyline
 90
       45
 70
   128
 43
0.0
 10
412.3504276513
 20
-234.5881811838
 10
412.2712570491
 20
-235.9121500091
 10
412.0353569278
 20
-237.3005750786
 10
411.6475295335
 20
-238.7251920619
 10
411.1156699136
 20
-240.1569998655
 10
410.4506051962
 20
-241.5668510114
 10
409.665874181
 20
-242.926044996
 10
408.7774517285
 20
-244.2069125493
 10
407.8034235579
 20
-245.3833789018
 10
406.7636180739
 20
-246.431494591
 10
405.6792027175
 20
-247.3299230042
 10
404.5722530582
 20
-248.0603747296
 10
403.4653033989
 20
-248.6079798766
 10
402.3808880425
 20
-248.9615907835
 10
401.3410825585
 20
-249.114008952
 10
400.3670543879
 20
-249.0621315878
 10
399.4786319354
 20
-248.8070147643
 10
398.6939009203
 20
-248.3538519245
 10
398.0288362028
 20
-247.7118681568
 10
397.4969765829
 20
-246.8941323995
 10
397.1091491886
 20
-245.9172913945
 10
396.8732490673
 20
-244.8012308076
 10
396.7940784652
 20
-243.5686704139
 10
396.8732490673
 20
-242.2447015886
 10
397.1091491886
 20
-240.8562765191
 10
397.4969765829
 20
-239.4316595358
 10
398.0288362028
 20
-237.9998517323
 10
398.6939009203
 20
-236.5900005864
 10
399.4786319354
 20
-235.2308066018
 10
400.3670543879
 20
-233.9499390484
 10
401.3410825585
 20
-232.7734726959
 10
402.3808880425
 20
-231.7253570067
 10
403.4653033989
 20
-230.8269285935
 10
404.5722530582
 20
-230.0964768681
 10
405.6792027175
 20
-229.5488717211
 10
406.7636180739
 20
-229.1952608142
 10
407.8034235579
 20
-229.0428426457
 10
408.7774517285
 20
-229.0947200099
 10
409.665874181
 20
-229.3498368334
 10
410.4506051962
 20
-229.8029996733
 10
411.1156699136
 20
-230.4449834409
 10
411.6475295335
 20
-231.2627191982
 10
412.0353569278
 20
-232.2395602033
 10
412.2712570491
 20
-233.3556207902
 10
412.3504276513
 20
-234.5881811838
  0
LWPOLYLINE
  5
152
330
1F
100
AcDbEntity
  8
0
  6
Continuous
 62
     7
370
    25
100
AcDbPolyline
 90
       45
 70
   128
 43
0.0
 10
479.7023485593
 20
-117.9312325262
 10
479.6231779571
 20
-119.2552013514
 10
479.3872778358
 20
-120.6436264209
 10
478.9994504415
 20
-122.0682434042
 10
478.4675908216
 20
-123.5000512078
 10
477.8025261042
 20
-124.9099023537
 10
477.017795089
 20
-126.2690963383
 10
476.1293726365
 20
-127.5499638916
 10
475.1553444659
 20
-128.7264302441
 10
474.1155389819
 20
-129.7745459334
 10
473.0311236255
 20
-130.6729743465
 10
471.9241739662
 20
-131.4034260719
 10
470.817224307
 20
-131.9510312189
 10
469.7328089506
 20
-132.3046421258
 10
468.6930034665
 20
-132.4570602944
 10
467.7189752959
 20
-132.4051829301
 10
466.8305528435
 20
-132.1500661067
 10
466.0458218283
 20
-131.6969032668
 10
465.3807571108
 20
-131.0549194991
 10
464.8488974909
 20
-130.2371837418
 10
464.4610700967
 20
-129.2603427368
 10
464.2251699753
 20
-128.1442821499
 10
464.1459993732
 20
-126.9117217562
 10
464.2251699753
 20
-125.587752931
 10
464.4610700967
 20
-124.1993278614
 10
464.8488974909
 20
-122.7747108781
 10
465.3807571108
 20
-121.3429030746
 10
466.0458218283
 20
-119.9330519287
 10
466.8305528435
 20
-118.5738579441
 10
467.7189752959
 20
-117.2929903907
 10
468.6930034665
 20
-116.1165240383
 10
469.7328089506
 20
-115.068408349
 10
470.817224307
 20
-114.1699799358
 10
471.9241739662
 20
-113.4395282104
 10
473.0311236255
 20
-112.8919230635
 10
474.1155389819
 20
-112.5383121565
 10
475.1553444659
 20
-112.385893988
 10
476.1293726365
 20
-112.4377713522
 10
477.017795089
 20
-112.6928881757
 10
477.8025261042
 20
-113.1460510156
 10
478.4675908216
 20
-113.7880347833
 10
478.9994504415
 20
-114.6057705405
 10
479.3872778358
 20
-115.5826115456
 10
479.6231779571
 20
-116.6986721325
 10
479.7023485593
 20
-117.9312325262
  0
LWPOLYLINE
  5
153
330
1F
100
AcDbEntity
  8
0
  6
Continuous
 62
     7
370
    25
100
AcDbPolyline
 90
       45
 70
   128
 43
0.0
 10
364.7254276513
 20
-239.3015883201
 10
364.6462570491
 20
-240.6255571453
 10
364.4103569278
 20
-242.0139822149
 10
364.0225295335
 20
-243.4385991982
 10
363.4906699136
 20
-244.8704070017
 10
362.8256051962
 20
-246.2802581476
 10
362.040874181
 20
-247.6394521322
 10
361.1524517285
 20
-248.9203196856
 10
360.1784235579
 20
-250.096786038
 10
359.1386180739
 20
-251.1449017273
 10
358.0542027175
 20
-252.0433301404
 10
356.9472530582
 20
-252.7737818659
 10
355.8403033989
 20
-253.3213870128
 10
354.7558880425
 20
-253.6749979198
 10
353.7160825585
 20
-253.8274160883
 10
352.7420543879
 20
-253.7755387241
 10
351.8536319354
 20
-253.5204219006
 10
351.0689009203
 20
-253.0672590607
 10
350.4038362028
 20
-252.425275293
 10
349.8719765829
 20
-251.6075395358
 10
349.4841491886
 20
-250.6306985307
 10
349.2482490673
 20
-249.5146379438
 10
349.1690784652
 20
-248.2820775501
 10
349.2482490673
 20
-246.9581087249
 10
349.4841491886
 20
-245.5696836554
 10
349.8719765829
 20
-244.1450666721
 10
350.4038362028
 20
-242.7132588685
 10
351.0689009203
 20
-241.3034077226
 10
351.8536319354
 20
-239.944213738
 10
352.7420543879
 20
-238.6633461847
 10
353.7160825585
 20
-237.4868798322
 10
354.7558880425
 20
-236.4387641429
 10
355.8403033989
 20
-235.5403357298
 10
356.9472530582
 20
-234.8098840044
 10
358.0542027175
 20
-234.2622788574
 10
359.1386180739
 20
-233.9086679505
 10
360.1784235579
 20
-233.7562497819
 10
361.1524517285
 20
-233.8081271462
 10
362.040874181
 20
-234.0632439696
 10
362.8256051962
 20
-234.5164068095
 10
363.4906699136
 20
-235.1583905772
 10
364.0225295335
 20
-235.9761263345
 10
364.4103569278
 20
-236.9529673395
 10
364.6462570491
 20
-238.0690279264
 10
364.7254276513
 20
-239.3015883201
  0
LWPOLYLINE
  5
154
330
1F
100
AcDbEntity
  8
0
  6
Continuous
 62
     7
370
    25
100
AcDbPolyline
 90
       45
 70
   128
 43
0.0
 10
364.7254276513
 20
-129.3104039595
 10
364.6462570491
 20
-130.6343727847
 10
364.4103569278
 20
-132.0227978543
 10
364.0225295335
 20
-133.4474148376
 10
363.4906699136
 20
-134.8792226411
 10
362.8256051962
 20
-136.289073787
 10
362.040874181
 20
-137.6482677716
 10
361.1524517285
 20
-138.929135325
 10
360.1784235579
 20
-140.1056016774
 10
359.1386180739
 20
-141.1537173667
 10
358.0542027175
 20
-142.0521457798
 10
356.9472530582
 20
-142.7825975053
 10
355.8403033989
 20
-143.3302026522
 10
354.7558880426
 20
-143.6838135592
 10
353.7160825585
 20
-143.8362317277
 10
352.7420543879
 20
-143.7843543634
 10
351.8536319355
 20
-143.52923754
 10
351.0689009203
 20
-143.0760747001
 10
350.4038362028
 20
-142.4340909324
 10
349.8719765829
 20
-141.6163551752
 10
349.4841491886
 20
-140.6395141701
 10
349.2482490673
 20
-139.5234535832
 10
349.1690784652
 20
-138.2908931895
 10
349.2482490673
 20
-136.9669243643
 10
349.4841491886
 20
-135.5784992948
 10
349.8719765829
 20
-134.1538823115
 10
350.4038362028
 20
-132.7220745079
 10
351.0689009203
 20
-131.312223362
 10
351.8536319355
 20
-129.9530293774
 10
352.7420543879
 20
-128.6721618241
 10
353.7160825585
 20
-127.4956954716
 10
354.7558880426
 20
-126.4475797823
 10
355.8403033989
 20
-125.5491513692
 10
356.9472530582
 20
-124.8186996438
 10
358.0542027175
 20
-124.2710944968
 10
359.1386180739
 20
-123.9174835899
 10
360.1784235579
 20
-123.7650654213
 10
361.1524517285
 20
-123.8169427856
 10
362.040874181
 20
-124.072059609
 10
362.8256051962
 20
-124.5252224489
 10
363.4906699136
 20
-125.1672062166
 10
364.0225295335
 20
-125.9849419739
 10
364.4103569278
 20
-126.9617829789
 10
364.6462570491
 20
-128.0778435658
 10
364.7254276513
 20
-129.3104039595
  0
LINE
  5
155
330
1F
100
AcDbEntity
  8
0
  6
Continuous
 62
     7
370
    25
100
AcDbLine
 10
447.838384769
 20
-197.8345186458
 30
0.0
 11
447.9047661762
 21
-197.8738710387
 31
0.0
  0
ARC
  5
156
330
1F
100
AcDbEntity
  8
0
  6
Continuous
 62
     7
370
    25
100
AcDbCircle
 10
427.2623672993
 20
-123.6283743631
 30
0.0
 40
22.52419567293097
100
AcDbArc
 50
46.0352889722
 51
75.2596087507
  0
ARC
  5
157
330
1F
100
AcDbEntity
  8
0
  6
Continuous
 62
     7
370
    25
100
AcDbCircle
 10
383.2878792822
 20
-199.8044875923
 30
0.0
 40
22.51097129607201
100
AcDbArc
 50
225.4264921666
 51
254.0579002855
  0
LINE
  5
158
330
1F
100
AcDbEntity
  8
0
  6
Continuous
 62
     7
370
    25
100
AcDbLine
 10
467.565305677
 20
-131.450817428
 30
0.0
 11
467.6316870842
 21
-131.4901698209
 31
0.0
  0
LINE
  5
159
330
1F
100
AcDbEntity
  8
0
  6
Continuous
 62
     7
370
    25
100
AcDbLine
 10
400.213384769
 20
-248.1077660857
 30
0.0
 11
400.2797661762
 21
-248.1471184786
 31
0.0
  0
LINE
  5
15A
330
1F
100
AcDbEntity
  8
0
  6
Continuous
 62
     7
370
    25
100
AcDbLine
 10
447.838384769
 20
-87.8433342852
 30
0.0
 11
447.9047661762
 21
-87.8826866781
 31
0.0
  0
LINE
  5
15B
330
1F
100
AcDbEntity
  8
0
  6
Continuous
 62
     7
370
    25
100
AcDbLine
 10
352.588384769
 20
-252.8211732219
 30
0.0
 11
352.6547661762
 21
-252.8605256148
 31
0.0
  0
LINE
  5
15C
330
1F
100
AcDbEntity
  8
0
  6
Continuous
 62
     7
370
    25
100
AcDbLine
 10
400.213384769
 20
-92.5567414214
 30
0.0
 11
400.2797661762
 21
-92.5960938143
 31
0.0
  0
LINE
  5
15D
330
1F
100
AcDbEntity
  8
0
  6
Continuous
 62
     7
370
    25
100
AcDbLine
 10
332.8614638609
 20
-209.2136900791
 30
0.0
 11
332.9278452682
 21
-209.253042472
 31
0.0
  0
LINE
  5
15E
330
1F
100
AcDbEntity
  8
0
  6
Continuous
 62
     7
370
    25
100
AcDbLine
 10
352.588384769
 20
-142.8299888613
 30
0.0
 11
352.6547661762
 21
-142.8693412542
 31
0.0
  0
LWPOLYLINE
  5
15F
330
1F
100
AcDbEntity
  8
0
  6
Continuous
 62
     1
370
    25
100
AcDbPolyline
 90
       51
 70
   128
 43
0.0
 10
486.2430862853
 20
-114.9717531208
 10
486.163841137
 20
-119.1530494822
 10
485.9262608182
 20
-123.4176552603
 10
485.5308104036
 20
-127.7572222891
 10
484.9782640059
 20
-132.1632556622
 10
484.2697032606
 20
-136.6271303625
 10
483.4065152087
 20
-141.1401081457
 10
482.3903895813
 20
-145.6933546456
 10
481.223315492
 20
-150.2779566687
 10
479.9075775432
 20
-154.884939641
 10
478.4457513537
 20
-159.505285177
 10
476.840698517
 20
-164.1299487335
 10
475.0955609992
 20
-168.7498773143
 10
473.2137549891
 20
-173.3560271922
 10
471.1989642103
 20
-177.9393816126
 10
469.0551327103
 20
-182.490968444
 10
466.7864571401
 20
-187.0018777414
 10
464.3973785384
 20
-191.463279188
 10
461.8925736391
 20
-195.866439381
 10
459.2769457151
 20
-200.2027389275
 10
456.555614981
 20
-204.4636893175
 10
453.7339085696
 20
-208.6409495406
 10
450.8173501036
 20
-212.7263424137
 10
447.8116488832
 20
-216.7118705883
 10
444.7226887097
 20
-220.589732206
 10
441.5565163676
 20
-224.3523361706
 10
438.3193297881
 20
-227.992317008
 10
435.0174659159
 20
-231.5025492848
 10
431.6573883044
 20
-234.8761615565
 10
428.2456744636
 20
-238.1065498188
 10
424.7890029834
 20
-241.1873904347
 10
421.2941404605
 20
-244.1126525142
 10
417.7679282526
 20
-246.8766097194
 10
414.2172690855
 20
-249.4738514743
 10
410.6491135413
 20
-251.8992935561
 10
407.0704464521
 20
-254.148188048
 10
403.4882732267
 20
-256.2161326336
 10
399.9096061375
 20
-258.0990792141
 10
396.3414505933
 20
-259.7933418333
 10
392.7907914262
 20
-261.2956038924
 10
389.2645792183
 20
-262.6029246429
 10
385.7697166954
 20
-263.7127449431
 10
382.3130452152
 20
-264.6228922676
 10
378.9013313744
 20
-265.3315849604
 10
375.5412537629
 20
-265.8374357221
 10
372.2393898907
 20
-266.1394543261
 10
369.0022033112
 20
-266.2370495569
 10
365.8360309691
 20
-266.1300303672
 10
362.7470707956
 20
-265.8186062521
 10
359.7413695752
 20
-265.3033868389
 10
357.8856947064
 20
-264.8726778321
  0
LWPOLYLINE
  5
160
330
1F
100
AcDbEntity
  8
0
  6
Continuous
 62
     1
370
    25
100
AcDbPolyline
 90
       16
 70
   128
 43
0.0
 10
470.827785523
 20
-68.9918761996
 10
471.1989642103
 20
-69.373698255
 10
473.2137549891
 20
-71.6308247573
 10
475.0955609992
 20
-74.064287663
 10
476.840698517
 20
-76.6693233539
 10
478.4457513537
 20
-79.4408323505
 10
479.9075775432
 20
-82.3733892938
 10
481.223315492
 20
-85.4612535658
 10
482.3903895813
 20
-88.6983805272
 10
483.4065152087
 20
-92.0784333499
 10
484.2697032606
 20
-95.5947954218
 10
484.9782640059
 20
-99.2405832991
 10
485.5308104036
 20
-103.0086601807
 10
485.9262608182
 20
-106.8916498793
 10
486.163841137
 20
-110.8819512601
 10
486.2430862853
 20
-114.9717531208
  0
LWPOLYLINE
  5
161
330
1F
100
AcDbEntity
  8
0
  6
Continuous
 62
     1
370
    25
100
AcDbPolyline
 90
       16
 70
   128
 43
0.0
 10
498.9710083466
 20
-122.3194261272
 10
498.8917631983
 20
-118.2296242665
 10
498.6541828796
 20
-114.2393228857
 10
498.2587324649
 20
-110.3563331871
 10
497.7061860672
 20
-106.5882563055
 10
496.997625322
 20
-102.9424684282
 10
496.13443727
 20
-99.4261063563
 10
495.1183116426
 20
-96.0460535336
 10
493.9512375534
 20
-92.8089265722
 10
492.6354996046
 20
-89.7210623002
 10
491.1736734151
 20
-86.788505357
 10
489.5686205783
 20
-84.0169963603
 10
487.8234830605
 20
-81.4119606694
 10
485.9416770504
 20
-78.9784977637
 10
483.9268862716
 20
-76.7213712614
 10
483.7051726147
 20
-76.4921135946
  0
LWPOLYLINE
  5
162
330
1F
100
AcDbEntity
  8
0
  6
Continuous
 62
     1
370
    25
100
AcDbPolyline
 90
       51
 70
   128
 43
0.0
 10
370.0259531429
 20
-272.0649963509
 10
372.4692916365
 20
-272.6510598453
 10
375.4749928569
 20
-273.1662792585
 10
378.5639530305
 20
-273.4777033736
 10
381.7301253725
 20
-273.5847225633
 10
384.967311952
 20
-273.4871273325
 10
388.2691758243
 20
-273.1851087285
 10
391.6292534357
 20
-272.6792579668
 10
395.0409672766
 20
-271.970565274
 10
398.4976387568
 20
-271.0604179495
 10
401.9925012796
 20
-269.9505976493
 10
405.5187134876
 20
-268.6432768988
 10
409.0693726547
 20
-267.1410148397
 10
412.6375281989
 20
-265.4467522205
 10
416.2161952881
 20
-263.56380564
 10
419.7983685134
 20
-261.4958610545
 10
423.3770356027
 20
-259.2469665625
 10
426.9451911468
 20
-256.8215244807
 10
430.4958503139
 20
-254.2242827258
 10
434.0220625219
 20
-251.4603255206
 10
437.5169250447
 20
-248.5350634411
 10
440.973596525
 20
-245.4542228252
 10
444.3853103658
 20
-242.2238345629
 10
447.7453879772
 20
-238.8502222912
 10
451.0472518495
 20
-235.3399900144
 10
454.284438429
 20
-231.700009177
 10
457.4506107711
 20
-227.9374052125
 10
460.5395709446
 20
-224.0595435947
 10
463.545272165
 20
-220.0740154201
 10
466.461830631
 20
-215.988622547
 10
469.2835370424
 20
-211.8113623239
 10
472.0048677764
 20
-207.5504119339
 10
474.6204957004
 20
-203.2141123874
 10
477.1253005998
 20
-198.8109521944
 10
479.5143792014
 20
-194.3495507478
 10
481.7830547717
 20
-189.8386414504
 10
483.9268862716
 20
-185.287054619
 10
485.9416770504
 20
-180.7037001986
 10
487.8234830605
 20
-176.0975503207
 10
489.5686205783
 20
-171.4776217399
 10
491.1736734151
 20
-166.8529581834
 10
492.6354996046
 20
-162.2326126474
 10
493.9512375534
 20
-157.6256296751
 10
495.1183116426
 20
-153.0410276521
 10
496.13443727
 20
-148.4877811521
 10
496.997625322
 20
-143.9748033689
 10
497.7061860672
 20
-139.5109286686
 10
498.2587324649
 20
-135.1048952955
 10
498.6541828796
 20
-130.7653282667
 10
498.8917631983
 20
-126.5007224886
 10
498.9710083466
 20
-122.3194261272
  0
LWPOLYLINE
  5
163
330
1F
100
AcDbEntity
  8
0
  6
Continuous
 62
     1
370
    25
100
AcDbPolyline
 90
       23
 70
   128
 43
0.0
 10
457.8529092294
 20
-180.5240221161
 10
457.3130985083
 20
-180.284298621
 10
456.4398937453
 20
-180.1009112721
 10
455.4877109971
 20
-180.1210814707
 10
454.477820453
 20
-180.3443586478
 10
453.4327813987
 20
-180.7657551602
 10
452.3759382801
 20
-181.3758577062
 10
451.3308992258
 20
-182.1610376031
 10
450.3210086816
 20
-183.1037552294
 10
449.3688259335
 20
-184.1829518312
 10
448.4956211704
 20
-185.3745199397
 10
447.7209003441
 20
-186.6518418924
 10
447.0619694374
 20
-187.9863844275
 10
446.5335478781
 20
-189.3483360701
 10
446.1474397305
 20
-190.7072730711
 10
445.9122700127
 20
-192.0328390233
 10
445.8332920275
 20
-193.295422974
 10
445.9122700127
 20
-194.4668208839
 10
446.1474397305
 20
-195.5208656595
 10
446.5335478781
 20
-196.4340116822
 10
447.0619694374
 20
-197.1858607788
 10
447.7209003441
 20
-197.7596178828
 10
447.838384769
 20
-197.8345186458
  0
LWPOLYLINE
  5
164
330
1F
100
AcDbEntity
  8
0
  6
Continuous
 62
     1
370
    25
100
AcDbPolyline
 90
       50
 70
   128
 43
0.0
 10
432.9934183943
 20
-101.8454809818
 10
431.1187012331
 20
-101.4274251736
 10
428.7906603139
 20
-101.1131844233
 10
426.3830645962
 20
-101.0039878969
 10
423.9040606218
 20
-101.1002050807
 10
421.3620365555
 20
-101.4015104063
 10
418.765593802
 20
-101.9068843518
 10
416.1235179018
 20
-102.6146168918
 10
413.4447488033
 20
-103.5223132833
 10
410.7383506133
 20
-104.6269021692
 10
408.0134809265
 20
-105.9246459703
 10
405.2793598394
 20
-107.4111535322
 10
402.5452387523
 20
-109.0813949841
 10
399.8203690655
 20
-110.9297187575
 10
397.1139708755
 20
-112.9498707099
 10
394.435201777
 20
-115.1350152865
 10
391.7931258768
 20
-117.4777586497
 10
389.1966831233
 20
-119.9701736976
 10
386.654659057
 20
-122.6038268866
 10
384.1756550826
 20
-125.369806768
 10
381.7680593649
 20
-128.2587541414
 10
379.4400184457
 20
-131.2608937235
 10
377.1994096786
 20
-134.366067224
 10
375.0538145742
 20
-137.5637677189
 10
373.0104931474
 20
-140.8431752019
 10
371.076359351
 20
-144.1931931961
 10
369.2579576815
 20
-147.602486301
 10
367.5614410346
 20
-151.0595185481
 10
365.9925498857
 20
-154.5525924343
 10
364.5565928656
 20
-158.0698885035
 10
363.2584287986
 20
-161.5995053391
 10
362.1024502607
 20
-165.129499835
 10
361.0925687176
 20
-168.6479276072
 10
360.2322012886
 20
-172.1428834099
 10
359.5242591847
 20
-175.6025414189
 10
358.9711378581
 20
-179.0151952467
 10
358.5747088962
 20
-182.3692975529
 10
358.336313689
 20
-185.6534991171
 10
358.2567588905
 20
-188.8566872408
 10
358.336313689
 20
-191.9680233492
 10
358.5747088962
 20
-194.976979666
 10
358.9711378581
 20
-197.8733748353
 10
359.5242591847
 20
-200.6474083727
 10
360.2322012886
 20
-203.289693827
 10
361.0925687176
 20
-205.7912905404
 10
362.1024502607
 20
-208.1437339015
 10
363.2584287986
 20
-210.3390639867
 10
364.5565928656
 20
-212.3698524939
 10
365.9925498857
 20
-214.2292278776
 10
367.4891448891
 20
-215.8401921377
  0
LWPOLYLINE
  5
165
330
1F
100
AcDbEntity
  8
0
  6
Continuous
 62
     1
370
    25
100
AcDbPolyline
 90
       50
 70
   128
 43
0.0
 10
378.9998168407
 20
-221.9004116356
 10
378.720471947
 20
-221.576900884
 10
377.284514927
 20
-219.7175255003
 10
375.9863508599
 20
-217.6867369931
 10
374.8303723221
 20
-215.4914069079
 10
373.8204907789
 20
-213.1389635468
 10
372.9601233499
 20
-210.6373668334
 10
372.2521812461
 20
-207.9950813791
 10
371.6990599195
 20
-205.2210478417
 10
371.3026309575
 20
-202.3246526724
 10
371.0642357503
 20
-199.3156963556
 10
370.9846809519
 20
-196.2043602472
 10
371.0642357503
 20
-193.0011721235
 10
371.3026309575
 20
-189.7169705593
 10
371.6990599195
 20
-186.3628682531
 10
372.2521812461
 20
-182.9502144253
 10
372.9601233499
 20
-179.4905564163
 10
373.8204907789
 20
-175.9956006136
 10
374.8303723221
 20
-172.4771728414
 10
375.9863508599
 20
-168.9471783455
 10
377.284514927
 20
-165.4175615099
 10
378.720471947
 20
-161.9002654407
 10
380.289363096
 20
-158.4071915545
 10
381.9858797428
 20
-154.9501593074
 10
383.8042814123
 20
-151.5408662025
 10
385.7384152087
 20
-148.1908482083
 10
387.7817366356
 20
-144.9114407253
 10
389.9273317399
 20
-141.7137402304
 10
392.1679405071
 20
-138.6085667299
 10
394.4959814263
 20
-135.6064271478
 10
396.903577144
 20
-132.7174797744
 10
399.3825811184
 20
-129.951499893
 10
401.9246051847
 20
-127.317846704
 10
404.5210479381
 20
-124.8254316561
 10
407.1631238384
 20
-122.4826882929
 10
409.8418929368
 20
-120.2975437163
 10
412.5482911269
 20
-118.2773917639
 10
415.2731608137
 20
-116.4290679905
 10
418.0072819008
 20
-114.7588265386
 10
420.7414029879
 20
-113.2723189767
 10
423.4662726747
 20
-111.9745751756
 10
426.1726708647
 20
-110.8699862897
 10
428.8514399632
 20
-109.9622898982
 10
431.4935158634
 20
-109.2545573582
 10
434.0899586168
 20
-108.7491834127
 10
436.6319826832
 20
-108.4478780871
 10
439.1109866575
 20
-108.3516609033
 10
441.5185823752
 20
-108.4608574297
 10
443.8466232944
 20
-108.77509818
 10
444.2133861955
 20
-108.8447764269
  0
LWPOLYLINE
  5
166
330
1F
100
AcDbEntity
  8
0
  6
Continuous
 62
     1
370
    25
100
AcDbPolyline
 90
       23
 70
   128
 43
0.0
 10
477.5798301374
 20
-114.1403208983
 10
477.0400194164
 20
-113.9005974032
 10
476.1668146534
 20
-113.7172100543
 10
475.2146319052
 20
-113.7373802529
 10
474.204741361
 20
-113.96065743
 10
473.1597023068
 20
-114.3820539424
 10
472.1028591881
 20
-114.9921564884
 10
471.0578201339
 20
-115.7773363853
 10
470.0479295897
 20
-116.7200540117
 10
469.0957468415
 20
-117.7992506135
 10
468.2225420785
 20
-118.990818722
 10
467.4478212521
 20
-120.2681406746
 10
466.7888903454
 20
-121.6026832097
 10
466.2604687861
 20
-122.9646348523
 10
465.8743606385
 20
-124.3235718533
 10
465.6391909207
 20
-125.6491378056
 10
465.5602129356
 20
-126.9117217562
 10
465.6391909207
 20
-128.0831196661
 10
465.8743606385
 20
-129.1371644417
 10
466.2604687861
 20
-130.0503104644
 10
466.7888903454
 20
-130.802159561
 10
467.4478212521
 20
-131.3759166651
 10
467.565305677
 20
-131.450817428
  0
LWPOLYLINE
  5
167
330
1F
100
AcDbEntity
  8
0
  6
Continuous
 62
     1
370
    25
100
AcDbPolyline
 90
       23
 70
   128
 43
0.0
 10
410.2279092294
 20
-230.797269556
 10
409.6880985083
 20
-230.5575460609
 10
408.8148937453
 20
-230.374158712
 10
407.8627109971
 20
-230.3943289106
 10
406.852820453
 20
-230.6176060877
 10
405.8077813987
 20
-231.0390026001
 10
404.7509382801
 20
-231.6491051461
 10
403.7058992258
 20
-232.434285043
 10
402.6960086816
 20
-233.3770026693
 10
401.7438259335
 20
-234.4561992711
 10
400.8706211704
 20
-235.6477673796
 10
400.0959003441
 20
-236.9250893323
 10
399.4369694374
 20
-238.2596318674
 10
398.9085478781
 20
-239.62158351
 10
398.5224397305
 20
-240.980520511
 10
398.2872700127
 20
-242.3060864632
 10
398.2082920275
 20
-243.5686704139
 10
398.2872700127
 20
-244.7400683238
 10
398.5224397305
 20
-245.7941130994
 10
398.9085478781
 20
-246.7072591221
 10
399.4369694374
 20
-247.4591082187
 10
400.0959003441
 20
-248.0328653227
 10
400.213384769
 20
-248.1077660857
  0
LWPOLYLINE
  5
168
330
1F
100
AcDbEntity
  8
0
  6
Continuous
 62
     1
370
    25
100
AcDbPolyline
 90
       23
 70
   128
 43
0.0
 10
457.8529092294
 20
-70.5328377555
 10
457.3130985084
 20
-70.2931142604
 10
456.4398937453
 20
-70.1097269115
 10
455.4877109972
 20
-70.1298971101
 10
454.477820453
 20
-70.3531742872
 10
453.4327813987
 20
-70.7745707996
 10
452.3759382801
 20
-71.3846733456
 10
451.3308992258
 20
-72.1698532425
 10
450.3210086816
 20
-73.1125708688
 10
449.3688259335
 20
-74.1917674706
 10
448.4956211705
 20
-75.3833355791
 10
447.7209003441
 20
-76.6606575318
 10
447.0619694374
 20
-77.9952000669
 10
446.5335478781
 20
-79.3571517095
 10
446.1474397305
 20
-80.7160887105
 10
445.9122700127
 20
-82.0416546627
 10
445.8332920275
 20
-83.3042386134
 10
445.9122700127
 20
-84.4756365233
 10
446.1474397305
 20
-85.5296812989
 10
446.5335478781
 20
-86.4428273216
 10
447.0619694374
 20
-87.1946764182
 10
447.7209003441
 20
-87.7684335222
 10
447.838384769
 20
-87.8433342852
  0
LWPOLYLINE
  5
169
330
1F
100
AcDbEntity
  8
0
  6
Continuous
 62
     1
370
    25
100
AcDbPolyline
 90
       23
 70
   128
 43
0.0
 10
362.6029092294
 20
-235.5106766923
 10
362.0630985083
 20
-235.2709531971
 10
361.1898937453
 20
-235.0875658483
 10
360.2377109971
 20
-235.1077360468
 10
359.227820453
 20
-235.3310132239
 10
358.1827813987
 20
-235.7524097364
 10
357.1259382801
 20
-236.3625122824
 10
356.0808992258
 20
-237.1476921793
 10
355.0710086816
 20
-238.0904098056
 10
354.1188259335
 20
-239.1696064074
 10
353.2456211704
 20
-240.3611745159
 10
352.4709003441
 20
-241.6384964685
 10
351.8119694374
 20
-242.9730390037
 10
351.2835478781
 20
-244.3349906463
 10
350.8974397305
 20
-245.6939276472
 10
350.6622700127
 20
-247.0194935995
 10
350.5832920275
 20
-248.2820775501
 10
350.6622700127
 20
-249.4534754601
 10
350.8974397305
 20
-250.5075202356
 10
351.2835478781
 20
-251.4206662583
 10
351.8119694374
 20
-252.1725153549
 10
352.4709003441
 20
-252.746272459
 10
352.588384769
 20
-252.8211732219
  0
LWPOLYLINE
  5
16A
330
1F
100
AcDbEntity
  8
0
  6
Continuous
 62
     1
370
    25
100
AcDbPolyline
 90
       23
 70
   128
 43
0.0
 10
410.2279092294
 20
-75.2462448918
 10
409.6880985084
 20
-75.0065213966
 10
408.8148937453
 20
-74.8231340478
 10
407.8627109972
 20
-74.8433042463
 10
406.852820453
 20
-75.0665814234
 10
405.8077813987
 20
-75.4879779359
 10
404.7509382801
 20
-76.0980804819
 10
403.7058992258
 20
-76.8832603788
 10
402.6960086816
 20
-77.8259780051
 10
401.7438259335
 20
-78.9051746069
 10
400.8706211705
 20
-80.0967427154
 10
400.0959003441
 20
-81.3740646681
 10
399.4369694374
 20
-82.7086072032
 10
398.9085478781
 20
-84.0705588458
 10
398.5224397305
 20
-85.4294958467
 10
398.2872700127
 20
-86.755061799
 10
398.2082920275
 20
-88.0176457496
 10
398.2872700127
 20
-89.1890436596
 10
398.5224397305
 20
-90.2430884351
 10
398.9085478781
 20
-91.1562344578
 10
399.4369694374
 20
-91.9080835544
 10
400.0959003441
 20
-92.4818406585
 10
400.213384769
 20
-92.5567414214
  0
LWPOLYLINE
  5
16B
330
1F
100
AcDbEntity
  8
0
  6
Continuous
 62
     1
370
    25
100
AcDbPolyline
 90
       23
 70
   128
 43
0.0
 10
342.8759883214
 20
-191.9031935495
 10
342.3361776003
 20
-191.6634700543
 10
341.4629728373
 20
-191.4800827054
 10
340.5107900891
 20
-191.500252904
 10
339.5008995449
 20
-191.7235300811
 10
338.4558604907
 20
-192.1449265935
 10
337.399017372
 20
-192.7550291396
 10
336.3539783178
 20
-193.5402090364
 10
335.3440877736
 20
-194.4829266628
 10
334.3919050254
 20
-195.5621232646
 10
333.5187002624
 20
-196.7536913731
 10
332.7439794361
 20
-198.0310133257
 10
332.0850485294
 20
-199.3655558608
 10
331.5566269701
 20
-200.7275075034
 10
331.1705188225
 20
-202.0864445044
 10
330.9353491047
 20
-203.4120104567
 10
330.8563711195
 20
-204.6745944073
 10
330.9353491047
 20
-205.8459923172
 10
331.1705188225
 20
-206.9000370928
 10
331.5566269701
 20
-207.8131831155
 10
332.0850485294
 20
-208.5650322121
 10
332.7439794361
 20
-209.1387893162
 10
332.8614638609
 20
-209.2136900791
  0
LWPOLYLINE
  5
16C
330
1F
100
AcDbEntity
  8
0
  6
Continuous
 62
     1
370
    25
100
AcDbPolyline
 90
       23
 70
   128
 43
0.0
 10
362.6029092294
 20
-125.5194923317
 10
362.0630985083
 20
-125.2797688365
 10
361.1898937453
 20
-125.0963814877
 10
360.2377109972
 20
-125.1165516862
 10
359.227820453
 20
-125.3398288633
 10
358.1827813987
 20
-125.7612253758
 10
357.1259382801
 20
-126.3713279218
 10
356.0808992258
 20
-127.1565078187
 10
355.0710086816
 20
-128.099225445
 10
354.1188259335
 20
-129.1784220468
 10
353.2456211704
 20
-130.3699901553
 10
352.4709003441
 20
-131.6473121079
 10
351.8119694374
 20
-132.9818546431
 10
351.2835478781
 20
-134.3438062857
 10
350.8974397305
 20
-135.7027432866
 10
350.6622700127
 20
-137.0283092389
 10
350.5832920275
 20
-138.2908931895
 10
350.6622700127
 20
-139.4622910995
 10
350.8974397305
 20
-140.516335875
 10
351.2835478781
 20
-141.4294818977
 10
351.8119694374
 20
-142.1813309943
 10
352.4709003441
 20
-142.7550880984
 10
352.588384769
 20
-142.8299888613
  0
ENDSEC
  0
SECTION
  2
OBJECTS
  0
DICTIONARY
  5
C
330
0
100
AcDbDictionary
281
     1
  3
ACAD_GROUP
350
D
  3
ACAD_LAYOUT
350
1A
  3
ACAD_MLINESTYLE
350
17
  3
ACAD_PLOTSETTINGS
350
19
  3
ACAD_PLOTSTYLENAME
350
E
  3
ACAD_SCALELIST
350
47
  3
DWGPROPS
350
16D
  0
DICTIONARY
  5
D
102
{ACAD_REACTORS
330
C
102
}
330
C
100
AcDbDictionary
281
     1
  0
DICTIONARY
  5
1A
102
{ACAD_REACTORS
330
C
102
}
330
C
100
AcDbDictionary
281
     1
  3
Layout1
350
1E
  3
Layout2
350
26
  3
Model
350
22
  0
DICTIONARY
  5
17
102
{ACAD_REACTORS
330
C
102
}
330
C
100
AcDbDictionary
281
     1
  3
Standard
350
18
  0
DICTIONARY
  5
19
102
{ACAD_REACTORS
330
C
102
}
330
C
100
AcDbDictionary
281
     1
  0
ACDBDICTIONARYWDFLT
  5
E
102
{ACAD_REACTORS
330
C
102
}
330
C
100
AcDbDictionary
281
     1
  3
Normal
350
F
100
AcDbDictionaryWithDefault
340
F
  0
DICTIONARY
  5
47
102
{ACAD_REACTORS
330
C
102
}
330
C
100
AcDbDictionary
281
     1
  3
A0
350
48
  3
A1
350
49
  3
A2
350
4A
  3
A3
350
4B
  3
A4
350
4C
  3
A5
350
4D
  3
A6
350
4E
  3
A7
350
4F
  3
A8
350
50
  3
A9
350
51
  3
B0
350
52
  3
B1
350
53
  3
B2
350
54
  3
B3
350
55
  3
B4
350
56
  3
B5
350
57
  3
B6
350
58
  3
B7
350
59
  3
B8
350
5A
  3
B9
350
5B
  3
C0
350
5C
  3
C1
350
5D
  3
C2
350
5E
  3
C3
350
5F
  3
C4
350
60
  3
C5
350
61
  3
C6
350
62
  3
C7
350
63
  3
C8
350
64
  3
C9
350
65
  3
D0
350
66
  3
D1
350
67
  3
D2
350
68
  0
XRECORD
  5
16D
102
{ACAD_REACTORS
330
C
102
}
330
C
100
AcDbXrecord
280
     1
  1
DWGPROPS COOKIE
  2

  3

  4

  6

  7

  8
b.kav
  9

300
=
301
=
302
=
303
=
304
=
305
=
306
=
307
=
308
=
309
=
 40
0.0
 41
2459741.463684907
 42
2459741.463686678
  1

 90
        0
  0
LAYOUT
  5
1E
102
{ACAD_REACTORS
330
1A
102
}
330
1A
100
AcDbPlotSettings
  1

  2
none_device
  4

  6

 40
0.0
 41
0.0
 42
0.0
 43
0.0
 44
0.0
 45
0.0
 46
0.0
 47
0.0
 48
0.0
 49
0.0
140
0.0
141
0.0
142
1.0
143
1.0
 70
   688
 72
     1
 73
     0
 74
     5
  7

 75
    16
147
1.0
148
0.0
149
0.0
100
AcDbLayout
  1
Layout1
 70
     1
 71
     1
 10
0.0
 20
0.0
 11
420.0
 21
297.0
 12
0.0
 22
0.0
 32
0.0
 14
1.0000000000E+20
 24
1.0000000000E+20
 34
1.0000000000E+20
 15
-1.0000000000E+20
 25
-1.0000000000E+20
 35
-1.0000000000E+20
146
0.0
 13
0.0
 23
0.0
 33
0.0
 16
1.0
 26
0.0
 36
0.0
 17
0.0
 27
1.0
 37
0.0
 76
     0
330
1B
  0
LAYOUT
  5
26
102
{ACAD_REACTORS
330
1A
102
}
330
1A
100
AcDbPlotSettings
  1

  2
none_device
  4

  6

 40
0.0
 41
0.0
 42
0.0
 43
0.0
 44
0.0
 45
0.0
 46
0.0
 47
0.0
 48
0.0
 49
0.0
140
0.0
141
0.0
142
1.0
143
1.0
 70
   688
 72
     1
 73
     0
 74
     5
  7

 75
    16
147
1.0
148
0.0
149
0.0
100
AcDbLayout
  1
Layout2
 70
     1
 71
     2
 10
0.0
 20
0.0
 11
0.0
 21
0.0
 12
0.0
 22
0.0
 32
0.0
 14
0.0
 24
0.0
 34
0.0
 15
0.0
 25
0.0
 35
0.0
146
0.0
 13
0.0
 23
0.0
 33
0.0
 16
1.0
 26
0.0
 36
0.0
 17
0.0
 27
1.0
 37
0.0
 76
     0
330
23
  0
LAYOUT
  5
22
102
{ACAD_REACTORS
330
1A
102
}
330
1A
100
AcDbPlotSettings
  1

  2
none_device
  4
Letter_(8.50_x_11.00_Inches)
  6

 40
6.35
 41
6.35
 42
6.35000508
 43
6.35000508
 44
215.9
 45
279.4
 46
0.0
 47
0.0
 48
0.0
 49
0.0
140
0.0
141
0.0
142
1.0
143
1.0
 70
  1712
 72
     1
 73
     0
 74
     0
  7

 75
     0
147
1.0
148
0.0
149
0.0
100
AcDbLayout
  1
Model
 70
     1
 71
     0
 10
0.0
 20
0.0
 11
279.4
 21
215.9
 12
0.0
 22
0.0
 32
0.0
 14
0.0
 24
0.0
 34
0.0
 15
279.4
 25
215.9
 35
0.0
146
0.0
 13
0.0
 23
0.0
 33
0.0
 16
1.0
 26
0.0
 36
0.0
 17
0.0
 27
1.0
 37
0.0
 76
     0
330
1F
331
29
  0
MLINESTYLE
  5
18
102
{ACAD_REACTORS
330
17
102
}
330
17
100
AcDbMlineStyle
  2
Standard
 70
     0
  3

 62
   256
 51
90.0
 52
90.0
 71
     2
 49
0.5
 62
   256
  6
BYLAYER
 49
-0.5
 62
   256
  6
BYLAYER
  0
ACDBPLACEHOLDER
  5
F
102
{ACAD_REACTORS
330
E
102
}
330
E
  0
SCALE
  5
48
102
{ACAD_REACTORS
330
47
102
}
330
47
100
AcDbScale
 70
     0
300
1:1
140
1.0
141
1.0
290
     1
  0
SCALE
  5
49
102
{ACAD_REACTORS
330
47
102
}
330
47
100
AcDbScale
 70
     0
300
1:2
140
1.0
141
2.0
290
     0
  0
SCALE
  5
4A
102
{ACAD_REACTORS
330
47
102
}
330
47
100
AcDbScale
 70
     0
300
1:4
140
1.0
141
4.0
290
     0
  0
SCALE
  5
4B
102
{ACAD_REACTORS
330
47
102
}
330
47
100
AcDbScale
 70
     0
300
1:5
140
1.0
141
5.0
290
     0
  0
SCALE
  5
4C
102
{ACAD_REACTORS
330
47
102
}
330
47
100
AcDbScale
 70
     0
300
1:8
140
1.0
141
8.0
290
     0
  0
SCALE
  5
4D
102
{ACAD_REACTORS
330
47
102
}
330
47
100
AcDbScale
 70
     0
300
1:10
140
1.0
141
10.0
290
     0
  0
SCALE
  5
4E
102
{ACAD_REACTORS
330
47
102
}
330
47
100
AcDbScale
 70
     0
300
1:16
140
1.0
141
16.0
290
     0
  0
SCALE
  5
4F
102
{ACAD_REACTORS
330
47
102
}
330
47
100
AcDbScale
 70
     0
300
1:20
140
1.0
141
20.0
290
     0
  0
SCALE
  5
50
102
{ACAD_REACTORS
330
47
102
}
330
47
100
AcDbScale
 70
     0
300
1:30
140
1.0
141
30.0
290
     0
  0
SCALE
  5
51
102
{ACAD_REACTORS
330
47
102
}
330
47
100
AcDbScale
 70
     0
300
1:40
140
1.0
141
40.0
290
     0
  0
SCALE
  5
52
102
{ACAD_REACTORS
330
47
102
}
330
47
100
AcDbScale
 70
     0
300
1:50
140
1.0
141
50.0
290
     0
  0
SCALE
  5
53
102
{ACAD_REACTORS
330
47
102
}
330
47
100
AcDbScale
 70
     0
300
1:100
140
1.0
141
100.0
290
     0
  0
SCALE
  5
54
102
{ACAD_REACTORS
330
47
102
}
330
47
100
AcDbScale
 70
     0
300
2:1
140
2.0
141
1.0
290
     0
  0
SCALE
  5
55
102
{ACAD_REACTORS
330
47
102
}
330
47
100
AcDbScale
 70
     0
300
4:1
140
4.0
141
1.0
290
     0
  0
SCALE
  5
56
102
{ACAD_REACTORS
330
47
102
}
330
47
100
AcDbScale
 70
     0
300
8:1
140
8.0
141
1.0
290
     0
  0
SCALE
  5
57
102
{ACAD_REACTORS
330
47
102
}
330
47
100
AcDbScale
 70
     0
300
10:1
140
10.0
141
1.0
290
     0
  0
SCALE
  5
58
102
{ACAD_REACTORS
330
47
102
}
330
47
100
AcDbScale
 70
     0
300
100:1
140
100.0
141
1.0
290
     0
  0
SCALE
  5
59
102
{ACAD_REACTORS
330
47
102
}
330
47
100
AcDbScale
 70
     0
300
1/128" = 1'-0"
140
0.0078125
141
12.0
290
     0
  0
SCALE
  5
5A
102
{ACAD_REACTORS
330
47
102
}
330
47
100
AcDbScale
 70
     0
300
1/64" = 1'-0"
140
0.015625
141
12.0
290
     0
  0
SCALE
  5
5B
102
{ACAD_REACTORS
330
47
102
}
330
47
100
AcDbScale
 70
     0
300
1/32" = 1'-0"
140
0.03125
141
12.0
290
     0
  0
SCALE
  5
5C
102
{ACAD_REACTORS
330
47
102
}
330
47
100
AcDbScale
 70
     0
300
1/16" = 1'-0"
140
0.0625
141
12.0
290
     0
  0
SCALE
  5
5D
102
{ACAD_REACTORS
330
47
102
}
330
47
100
AcDbScale
 70
     0
300
3/32" = 1'-0"
140
0.09375
141
12.0
290
     0
  0
SCALE
  5
5E
102
{ACAD_REACTORS
330
47
102
}
330
47
100
AcDbScale
 70
     0
300
1/8" = 1'-0"
140
0.125
141
12.0
290
     0
  0
SCALE
  5
5F
102
{ACAD_REACTORS
330
47
102
}
330
47
100
AcDbScale
 70
     0
300
3/16" = 1'-0"
140
0.1875
141
12.0
290
     0
  0
SCALE
  5
60
102
{ACAD_REACTORS
330
47
102
}
330
47
100
AcDbScale
 70
     0
300
1/4" = 1'-0"
140
0.25
141
12.0
290
     0
  0
SCALE
  5
61
102
{ACAD_REACTORS
330
47
102
}
330
47
100
AcDbScale
 70
     0
300
3/8" = 1'-0"
140
0.375
141
12.0
290
     0
  0
SCALE
  5
62
102
{ACAD_REACTORS
330
47
102
}
330
47
100
AcDbScale
 70
     0
300
1/2" = 1'-0"
140
0.5
141
12.0
290
     0
  0
SCALE
  5
63
102
{ACAD_REACTORS
330
47
102
}
330
47
100
AcDbScale
 70
     0
300
3/4" = 1'-0"
140
0.75
141
12.0
290
     0
  0
SCALE
  5
64
102
{ACAD_REACTORS
330
47
102
}
330
47
100
AcDbScale
 70
     0
300
1" = 1'-0"
140
1.0
141
12.0
290
     0
  0
SCALE
  5
65
102
{ACAD_REACTORS
330
47
102
}
330
47
100
AcDbScale
 70
     0
300
1-1/2" = 1'-0"
140
1.5
141
12.0
290
     0
  0
SCALE
  5
66
102
{ACAD_REACTORS
330
47
102
}
330
47
100
AcDbScale
 70
     0
300
3" = 1'-0"
140
3.0
141
12.0
290
     0
  0
SCALE
  5
67
102
{ACAD_REACTORS
330
47
102
}
330
47
100
AcDbScale
 70
     0
300
6" = 1'-0"
140
6.0
141
12.0
290
     0
  0
SCALE
  5
68
102
{ACAD_REACTORS
330
47
102
}
330
47
100
AcDbScale
 70
     0
300
1'-0" = 1'-0"
140
12.0
141
12.0
290
     0
  0
ENDSEC
  0
EOF
